  0
SECTION
  2
HEADER
  9
$ACADVER
  1
AC1009
  9
$INSBASE
 10
0.0
 20
0.0
 30
0.0
  9
$EXTMIN
 10
14685.2
 20
49075.5
 30
0.0
  9
$EXTMAX
 10
15332.19
 20
49689.7
 30
0.0
  9
$LIMMIN
 10
14684.2
 20
49074.5
  9
$LIMMAX
 10
15332.8
 20
49688.7
  9
$ORTHOMODE
 70
     0
  9
$REGENMODE
 70
     1
  9
$FILLMODE
 70
     1
  9
$QTEXTMODE
 70
     0
  9
$MIRRTEXT
 70
     1
  9
$DRAGMODE
 70
     2
  9
$LTSCALE
 40
1.0
  9
$OSMODE
 70
     0
  9
$ATTMODE
 70
     1
  9
$TEXTSIZE
 40
0.2
  9
$TRACEWID
 40
0.05
  9
$TEXTSTYLE
  7
STANDARD
  9
$CLAYER
  8
0
  9
$CELTYPE
  6
BYLAYER
  9
$CECOLOR
 62
   256
  9
$DIMSCALE
 40
1.0
  9
$DIMASZ
 40
0.18
  9
$DIMEXO
 40
0.06
  9
$DIMDLI
 40
0.38
  9
$DIMRND
 40
0.0
  9
$DIMDLE
 40
0.0
  9
$DIMEXE
 40
0.18
  9
$DIMTP
 40
0.0
  9
$DIMTM
 40
0.0
  9
$DIMTXT
 40
0.18
  9
$DIMCEN
 40
0.09
  9
$DIMTSZ
 40
0.0
  9
$DIMTOL
 70
     0
  9
$DIMLIM
 70
     0
  9
$DIMTIH
 70
     1
  9
$DIMTOH
 70
     1
  9
$DIMSE1
 70
     0
  9
$DIMSE2
 70
     0
  9
$DIMTAD
 70
     0
  9
$DIMZIN
 70
     0
  9
$DIMBLK
  1

  9
$DIMASO
 70
     1
  9
$DIMSHO
 70
     1
  9
$DIMPOST
  1

  9
$DIMAPOST
  1

  9
$DIMALT
 70
     0
  9
$DIMALTD
 70
     2
  9
$DIMALTF
 40
25.4
  9
$DIMLFAC
 40
1.0
  9
$DIMTOFL
 70
     0
  9
$DIMTVP
 40
0.0
  9
$DIMTIX
 70
     0
  9
$DIMSOXD
 70
     0
  9
$DIMSAH
 70
     0
  9
$DIMBLK1
  1

  9
$DIMBLK2
  1

  9
$DIMSTYLE
  2
STANDARD
  9
$DIMCLRD
 70
     0
  9
$DIMCLRE
 70
     0
  9
$DIMCLRT
 70
     0
  9
$DIMTFAC
 40
1.0
  9
$DIMGAP
 40
0.09
  9
$LUNITS
 70
     2
  9
$LUPREC
 70
     4
  9
$SKETCHINC
 40
0.1
  9
$FILLETRAD
 40
0.0
  9
$AUNITS
 70
     0
  9
$AUPREC
 70
     0
  9
$MENU
  1
ACAD
  9
$ELEVATION
 40
0.0
  9
$PELEVATION
 40
0.0
  9
$THICKNESS
 40
0.0
  9
$LIMCHECK
 70
     0
  9
$BLIPMODE
 70
     1
  9
$CHAMFERA
 40
0.0
  9
$CHAMFERB
 40
0.0
  9
$SKPOLY
 70
     0
  9
$TDCREATE
 40
2449756.376170949
  9
$TDUPDATE
 40
2449756.377067245
  9
$TDINDWG
 40
0.0005511574
  9
$TDUSRTIMER
 40
0.0005511574
  9
$USRTIMER
 70
     1
  9
$ANGBASE
 50
0.0
  9
$ANGDIR
 70
     0
  9
$PDMODE
 70
     0
  9
$PDSIZE
 40
0.0
  9
$PLINEWID
 40
0.0
  9
$COORDS
 70
     0
  9
$SPLFRAME
 70
     0
  9
$SPLINETYPE
 70
     6
  9
$SPLINESEGS
 70
     8
  9
$ATTDIA
 70
     0
  9
$ATTREQ
 70
     1
  9
$HANDLING
 70
     0
  9
$HANDSEED
  5
F8E
  9
$SURFTAB1
 70
     6
  9
$SURFTAB2
 70
     6
  9
$SURFTYPE
 70
     6
  9
$SURFU
 70
     6
  9
$SURFV
 70
     6
  9
$UCSNAME
  2

  9
$UCSORG
 10
0.0
 20
0.0
 30
0.0
  9
$UCSXDIR
 10
1.0
 20
0.0
 30
0.0
  9
$UCSYDIR
 10
0.0
 20
1.0
 30
0.0
  9
$PUCSNAME
  2

  9
$PUCSORG
 10
0.0
 20
0.0
 30
0.0
  9
$PUCSXDIR
 10
1.0
 20
0.0
 30
0.0
  9
$PUCSYDIR
 10
0.0
 20
1.0
 30
0.0
  9
$USERI1
 70
     0
  9
$USERI2
 70
     0
  9
$USERI3
 70
     0
  9
$USERI4
 70
     0
  9
$USERI5
 70
     0
  9
$USERR1
 40
0.0
  9
$USERR2
 40
0.0
  9
$USERR3
 40
0.0
  9
$USERR4
 40
0.0
  9
$USERR5
 40
0.0
  9
$WORLDVIEW
 70
     1
  9
$SHADEDGE
 70
     3
  9
$SHADEDIF
 70
    70
  9
$TILEMODE
 70
     1
  9
$MAXACTVP
 70
    16
  9
$PINSBASE
 10
0.0
 20
0.0
 30
0.0
  9
$PLIMCHECK
 70
     0
  9
$PEXTMIN
 10
1.00E+20
 20
1.00E+20
 30
1.00E+20
  9
$PEXTMAX
 10
-1.00E+20
 20
-1.00E+20
 30
-1.00E+20
  9
$PLIMMIN
 10
0.0
 20
0.0
  9
$PLIMMAX
 10
12.0
 20
9.0
  9
$UNITMODE
 70
     0
  9
$VISRETAIN
 70
     0
  9
$PLINEGEN
 70
     0
  9
$PSLTSCALE
 70
     0
  9
$TREEDEPTH
 70
  3020
  9
$DWGCODEPAGE
  3
dummy
  0
ENDSEC
  0
SECTION
  2
TABLES
  0
TABLE
  2
VPORT
 70
     2
  0
VPORT
  2
*ACTIVE
 70
     0
 10
0.0
 20
0.0
 11
1.0
 21
1.0
 12
15203.750741
 22
49400.053685
 13
0.0
 23
0.0
 14
0.0
 24
0.0
 15
0.0
 25
0.0
 16
0.0
 26
0.0
 36
1.0
 17
0.0
 27
0.0
 37
0.0
 40
585.106695
 41
1.652666
 42
0.0
 43
0.0
 44
0.0
 50
0.0
 51
0.0
 71
     0
 72
     0
 73
     0
 74
     0
 75
     0
 76
     0
 77
     0
 78
     0
  0
ENDTAB
  0
TABLE
  2
LTYPE
 70
     3
  0
LTYPE
  2
CONTINUOUS
 70
    64
  3
Solid line
 72
    65
 73
     0
 40
0.0
  0
LTYPE
  2
5
 70
     0
  3
Solid Line
 72
    65
 73
     0
 40
0.0
  0
LTYPE
  2
PHANTOM
 70
    64
  3
______  __  __  ______  __  __  ______  __  __  A^F
 72
    65
 73
     6
 40
2.5
 49
1.25
 49
-0.25
 49
0.25
 49
-0.25
 49
0.25
 49
-0.25
  0
ENDTAB
  0
TABLE
  2
LAYER
 70
    21
  0
LAYER
  2
0
 70
    64
 62
     7
  6
CONTINUOUS
  0
LAYER
  2
2
 70
     0
 62
     7
  6
CONTINUOUS
  0
LAYER
  2
3
 70
    64
 62
     7
  6
CONTINUOUS
  0
LAYER
  2
4
 70
    64
 62
     7
  6
CONTINUOUS
  0
LAYER
  2
5
 70
    64
 62
     7
  6
CONTINUOUS
  0
LAYER
  2
7
 70
     0
 62
     7
  6
CONTINUOUS
  0
LAYER
  2
8
 70
     0
 62
     7
  6
CONTINUOUS
  0
LAYER
  2
9
 70
     0
 62
     7
  6
CONTINUOUS
  0
LAYER
  2
12
 70
    64
 62
     7
  6
CONTINUOUS
  0
LAYER
  2
13
 70
    64
 62
     7
  6
CONTINUOUS
  0
LAYER
  2
17
 70
    64
 62
     7
  6
CONTINUOUS
  0
LAYER
  2
22
 70
    64
 62
     7
  6
CONTINUOUS
  0
LAYER
  2
25
 70
    64
 62
     7
  6
CONTINUOUS
  0
LAYER
  2
27
 70
    64
 62
     7
  6
CONTINUOUS
  0
LAYER
  2
31
 70
    64
 62
     7
  6
CONTINUOUS
  0
LAYER
  2
32
 70
    64
 62
     7
  6
CONTINUOUS
  0
LAYER
  2
38
 70
    64
 62
     7
  6
CONTINUOUS
  0
LAYER
  2
40
 70
    64
 62
     7
  6
CONTINUOUS
  0
LAYER
  2
42
 70
    64
 62
     7
  6
CONTINUOUS
  0
LAYER
  2
43
 70
    64
 62
     7
  6
CONTINUOUS
  0
LAYER
  2
50
 70
     0
 62
     7
  6
CONTINUOUS
  0
ENDTAB
  0
TABLE
  2
STYLE
 70
     2
  0
STYLE
  2
STANDARD
 70
    64
 40
0.0
 41
1.0
 50
0.0
 71
     0
 42
0.2
  3
TXT
  4

  0
STYLE
  2
ITALICS
 70
    64
 40
0.0
 41
1.0
 50
0.0
 71
     0
 42
0.2
  3
ITALICC
  4

  0
ENDTAB
  0
TABLE
  2
VIEW
 70
     0
  0
ENDTAB
  0
TABLE
  2
UCS
 70
     0
  0
ENDTAB
  0
TABLE
  2
APPID
 70
     1
  0
APPID
  2
ACAD
 70
    64
  0
ENDTAB
  0
TABLE
  2
DIMSTYLE
 70
     1
  0
DIMSTYLE
  2
STANDARD
 70
     0
  3

  4

  5

  6

  7

 40
1.0
 41
0.18
 42
0.06
 43
0.38
 44
0.18
 45
0.0
 46
0.0
 47
0.0
 48
0.0
140
0.18
141
0.09
142
0.0
143
25.4
144
1.0
145
0.0
146
1.0
147
0.09
 71
     0
 72
     0
 73
     1
 74
     1
 75
     0
 76
     0
 77
     0
 78
     0
170
     0
171
     2
172
     0
173
     0
174
     0
175
     0
176
     0
177
     0
178
     0
  0
ENDTAB
  0
ENDSEC
  0
SECTION
  2
BLOCKS
  0
ENDSEC
  0
SECTION
  2
ENTITIES
  0
TEXT
  8
27
  6
CONTINUOUS
  5
6E
 10
14932.92
 20
49127.25
 30
0.0
 40
8.0
  1
 96  AVE
 50
0.59
 72
     4
 11
14967.54
 21
49131.61
 31
0.0
  0
TEXT
  8
27
  6
CONTINUOUS
  5
6F
 10
14810.48
 20
49325.45
 30
0.0
 40
8.0
  1
152  ST
 50
89.58
 72
     4
 11
14806.67
 21
49351.48
 31
0.0
  0
TEXT
  8
27
  6
CONTINUOUS
  5
70
 10
15115.63
 20
49333.04
 30
0.0
 40
8.0
  1
153A ST
 50
89.52
 72
     4
 11
15111.85
 21
49359.07
 31
0.0
  0
TEXT
  8
27
  6
CONTINUOUS
  5
71
 10
15214.5
 20
49336.55
 30
0.0
 40
8.0
  1
154  ST
 50
89.45
 72
     4
 11
15210.75
 21
49362.59
 31
0.0
  0
TEXT
  8
27
  6
CONTINUOUS
  5
72
 10
15017.21
 20
49494.22
 30
0.0
 40
8.0
  1
153  ST
 50
89.53
 72
     4
 11
15013.42
 21
49520.25
 31
0.0
  0
TEXT
  8
27
  6
CONTINUOUS
  5
73
 10
14942.48
 20
49411.02
 30
0.0
 40
8.0
  1
 97A AVE
 50
359.59
 72
     4
 11
14977.17
 21
49414.77
 31
0.0
  0
TEXT
  8
27
  6
CONTINUOUS
  5
74
 10
14940.14
 20
49320.7
 30
0.0
 40
8.0
  1
 97  AVE
 50
359.59
 72
     4
 11
14974.83
 21
49324.45
 31
0.0
  0
TEXT
  8
27
  6
CONTINUOUS
  5
75
 10
15001.21
 20
49217.22
 30
0.0
 40
5.0
  1
 96A AVE
 50
40.15
 72
     4
 11
15016.16
 21
49233.1
 31
0.0
  0
TEXT
  8
27
  6
CONTINUOUS
  5
76
 10
15297.71
 20
49249.24
 30
0.0
 40
8.0
  1
96A AVE
 50
89.45
 72
     4
 11
15293.97
 21
49275.94
 31
0.0
  0
TEXT
  8
27
  6
CONTINUOUS
  5
77
 10
14742.88
 20
49340.05
 30
0.0
 40
8.0
  1
151B ST
 50
89.58
 72
     4
 11
14739.07
 21
49365.41
 31
0.0
  0
TEXT
  8
27
  6
CONTINUOUS
  5
78
 10
14920.24
 20
49459.35
 30
0.0
 40
8.0
  1
152B ST
 50
89.59
 72
     4
 11
14916.43
 21
49485.38
 31
0.0
  0
LINE
  8
32
  6
CONTINUOUS
  5
79
 10
15239.35
 20
49605.74
 30
0.0
 11
15239.78
 21
49565.58
 31
0.0
  0
LINE
  8
32
  6
CONTINUOUS
  5
7A
 10
15254.59
 20
49605.91
 30
0.0
 11
15255.02
 21
49565.74
 31
0.0
  0
LINE
  8
32
  6
CONTINUOUS
  5
7B
 10
15269.83
 20
49606.07
 30
0.0
 11
15270.26
 21
49565.91
 31
0.0
  0
LINE
  8
32
  6
CONTINUOUS
  5
7C
 10
15285.5
 20
49566.07
 30
0.0
 11
15285.07
 21
49606.24
 31
0.0
  0
LINE
  8
32
  6
CONTINUOUS
  5
7D
 10
15300.3
 20
49606.4
 30
0.0
 11
15300.73
 21
49566.24
 31
0.0
  0
LINE
  8
32
  6
CONTINUOUS
  5
7E
 10
15315.97
 20
49566.4
 30
0.0
 11
15315.54
 21
49606.57
 31
0.0
  0
LINE
  8
32
  6
CONTINUOUS
  5
7F
 10
15322.94
 20
49546.36
 30
0.0
 11
15322.53
 21
49512.34
 31
0.0
  0
LINE
  8
32
  6
CONTINUOUS
  5
80
 10
15318.77
 20
49512.3
 30
0.0
 11
15318.38
 21
49479.61
 31
0.0
  0
LINE
  8
32
  6
CONTINUOUS
  5
81
 10
15301.32
 20
49479.42
 30
0.0
 11
15301.71
 21
49512.12
 31
0.0
  0
LINE
  8
32
  6
CONTINUOUS
  5
82
 10
15306.1
 20
49512.16
 30
0.0
 11
15306.51
 21
49546.18
 31
0.0
  0
LINE
  8
32
  6
CONTINUOUS
  5
83
 10
15290.08
 20
49546.0
 30
0.0
 11
15289.67
 21
49511.99
 31
0.0
  0
LINE
  8
32
  6
CONTINUOUS
  5
84
 10
15273.25
 20
49511.81
 30
0.0
 11
15273.65
 21
49545.83
 31
0.0
  0
LINE
  8
32
  6
CONTINUOUS
  5
85
 10
15264.05
 20
49511.71
 30
0.0
 11
15291.79
 21
49476.09
 31
0.0
  0
LINE
  8
32
  6
CONTINUOUS
  5
86
 10
15256.82
 20
49511.63
 30
0.0
 11
15257.22
 21
49545.65
 31
0.0
  0
LINE
  8
32
  6
CONTINUOUS
  5
87
 10
15255.46
 20
49511.61
 30
0.0
 11
15255.3
 21
49494.92
 31
0.0
  0
LINE
  8
32
  6
CONTINUOUS
  5
88
 10
15255.3
 20
49494.92
 30
0.0
 11
15255.14
 21
49478.22
 31
0.0
  0
LINE
  8
32
  6
CONTINUOUS
  5
89
 10
15255.14
 20
49478.22
 30
0.0
 11
15255.12
 21
49475.88
 31
0.0
  0
LINE
  8
32
  6
CONTINUOUS
  5
8A
 10
15255.12
 20
49475.88
 30
0.0
 11
15254.98
 21
49461.52
 31
0.0
  0
LINE
  8
32
  6
CONTINUOUS
  5
8B
 10
15240.8
 20
49545.47
 30
0.0
 11
15240.39
 21
49511.45
 31
0.0
  0
LINE
  8
32
  6
CONTINUOUS
  5
8C
 10
15222.07
 20
49511.25
 30
0.0
 11
15240.39
 21
49511.45
 31
0.0
  0
LINE
  8
32
  6
CONTINUOUS
  5
8D
 10
15240.39
 20
49511.45
 30
0.0
 11
15255.46
 21
49511.61
 31
0.0
  0
LINE
  8
32
  6
CONTINUOUS
  5
8E
 10
15255.46
 20
49511.61
 30
0.0
 11
15256.82
 21
49511.63
 31
0.0
  0
LINE
  8
32
  6
CONTINUOUS
  5
8F
 10
15256.82
 20
49511.63
 30
0.0
 11
15264.05
 21
49511.71
 31
0.0
  0
LINE
  8
32
  6
CONTINUOUS
  5
90
 10
15264.05
 20
49511.71
 30
0.0
 11
15273.25
 21
49511.81
 31
0.0
  0
LINE
  8
32
  6
CONTINUOUS
  5
91
 10
15273.25
 20
49511.81
 30
0.0
 11
15289.67
 21
49511.99
 31
0.0
  0
LINE
  8
32
  6
CONTINUOUS
  5
92
 10
15289.67
 20
49511.99
 30
0.0
 11
15301.71
 21
49512.12
 31
0.0
  0
LINE
  8
32
  6
CONTINUOUS
  5
93
 10
15301.71
 20
49512.12
 30
0.0
 11
15306.1
 21
49512.16
 31
0.0
  0
POINT
  8
32
  6
CONTINUOUS
  5
94
 10
15306.1
 20
49512.16
 30
0.0
  0
LINE
  8
32
  6
CONTINUOUS
  5
95
 10
15306.1
 20
49512.16
 30
0.0
 11
15318.77
 21
49512.3
 31
0.0
  0
LINE
  8
32
  6
CONTINUOUS
  5
96
 10
15318.77
 20
49512.3
 30
0.0
 11
15322.53
 21
49512.34
 31
0.0
  0
LINE
  8
32
  6
CONTINUOUS
  5
97
 10
15322.53
 20
49512.34
 30
0.0
 11
15329.0
 21
49512.41
 31
0.0
  0
LINE
  8
32
  6
CONTINUOUS
  5
98
 10
15221.91
 20
49494.55
 30
0.0
 11
15255.3
 21
49494.92
 31
0.0
  0
LINE
  8
32
  6
CONTINUOUS
  5
99
 10
15255.14
 20
49478.22
 30
0.0
 11
15221.75
 21
49477.86
 31
0.0
  0
LINE
  8
32
  6
CONTINUOUS
  5
9A
 10
15221.59
 20
49461.16
 30
0.0
 11
15254.98
 21
49461.52
 31
0.0
  0
LINE
  8
32
  6
CONTINUOUS
  5
9B
 10
15221.43
 20
49444.46
 30
0.0
 11
15254.82
 21
49444.31
 31
0.0
  0
LINE
  8
32
  6
CONTINUOUS
  5
9C
 10
15254.82
 20
49444.31
 30
0.0
 11
15286.89
 21
49457.58
 31
0.0
  0
LINE
  8
32
  6
CONTINUOUS
  5
9D
 10
15255.12
 20
49475.88
 30
0.0
 11
15286.22
 21
49467.66
 31
0.0
  0
LINE
  8
32
  6
CONTINUOUS
  5
9E
 10
15293.54
 20
49449.97
 30
0.0
 11
15276.2
 21
49420.23
 31
0.0
  0
LINE
  8
32
  6
CONTINUOUS
  5
9F
 10
15304.29
 20
49447.85
 30
0.0
 11
15304.62
 21
49417.37
 31
0.0
  0
LINE
  8
32
  6
CONTINUOUS
  5
A0
 10
15321.02
 20
49450.82
 30
0.0
 11
15325.29
 21
49417.6
 31
0.0
  0
LINE
  8
32
  6
CONTINUOUS
  5
A1
 10
15325.29
 20
49417.6
 30
0.0
 11
15304.62
 21
49417.37
 31
0.0
  0
LINE
  8
32
  6
CONTINUOUS
  5
A2
 10
15304.62
 20
49417.37
 30
0.0
 11
15287.33
 21
49417.19
 31
0.0
  0
LINE
  8
32
  6
CONTINUOUS
  5
A3
 10
15287.33
 20
49417.19
 30
0.0
 11
15276.2
 21
49420.23
 31
0.0
  0
LINE
  8
32
  6
CONTINUOUS
  5
A4
 10
15276.2
 20
49420.23
 30
0.0
 11
15254.64
 21
49426.12
 31
0.0
  0
LINE
  8
32
  6
CONTINUOUS
  5
A5
 10
15254.64
 20
49426.12
 30
0.0
 11
15254.82
 21
49444.31
 31
0.0
  0
LINE
  8
32
  6
CONTINUOUS
  5
A6
 10
15254.82
 20
49444.31
 30
0.0
 11
15254.98
 21
49461.52
 31
0.0
  0
POLYLINE
  8
31
  6
CONTINUOUS
  5
A7
 66
     1
 10
0.0
 20
0.0
 30
0.0
 40
0.01
 41
0.01
  0
VERTEX
  8
31
  5
A8
 10
15222.55
 20
49565.39
 30
0.0
  0
VERTEX
  8
31
  5
A9
 10
15239.78
 20
49565.58
 30
0.0
  0
SEQEND
  8
0
  5
AA
  0
POLYLINE
  8
31
  6
CONTINUOUS
  5
AB
 66
     1
 10
0.0
 20
0.0
 30
0.0
 40
0.01
 41
0.01
  0
VERTEX
  8
31
  5
AC
 10
15239.78
 20
49565.58
 30
0.0
  0
VERTEX
  8
31
  5
AD
 10
15255.02
 20
49565.74
 30
0.0
  0
SEQEND
  8
0
  5
AE
  0
POLYLINE
  8
31
  6
CONTINUOUS
  5
AF
 66
     1
 10
0.0
 20
0.0
 30
0.0
 40
0.01
 41
0.01
  0
VERTEX
  8
31
  5
B0
 10
15255.02
 20
49565.74
 30
0.0
  0
VERTEX
  8
31
  5
B1
 10
15270.26
 20
49565.91
 30
0.0
  0
SEQEND
  8
0
  5
B2
  0
POLYLINE
  8
31
  6
CONTINUOUS
  5
B3
 66
     1
 10
0.0
 20
0.0
 30
0.0
 40
0.01
 41
0.01
  0
VERTEX
  8
31
  5
B4
 10
15270.26
 20
49565.91
 30
0.0
  0
VERTEX
  8
31
  5
B5
 10
15285.5
 20
49566.07
 30
0.0
  0
SEQEND
  8
0
  5
B6
  0
POLYLINE
  8
31
  6
CONTINUOUS
  5
B7
 66
     1
 10
0.0
 20
0.0
 30
0.0
 40
0.01
 41
0.01
  0
VERTEX
  8
31
  5
B8
 10
15285.5
 20
49566.07
 30
0.0
  0
VERTEX
  8
31
  5
B9
 10
15300.73
 20
49566.24
 30
0.0
  0
SEQEND
  8
0
  5
BA
  0
POLYLINE
  8
31
  6
CONTINUOUS
  5
BB
 66
     1
 10
0.0
 20
0.0
 30
0.0
 40
0.01
 41
0.01
  0
VERTEX
  8
31
  5
BC
 10
15300.73
 20
49566.24
 30
0.0
  0
VERTEX
  8
31
  5
BD
 10
15315.97
 20
49566.4
 30
0.0
  0
SEQEND
  8
0
  5
BE
  0
POLYLINE
  8
31
  6
CONTINUOUS
  5
BF
 66
     1
 10
0.0
 20
0.0
 30
0.0
 40
0.01
 41
0.01
  0
VERTEX
  8
31
  5
C0
 10
15315.97
 20
49566.4
 30
0.0
  0
VERTEX
  8
31
  5
C1
 10
15329.0
 20
49566.54
 30
0.0
  0
SEQEND
  8
0
  5
C2
  0
POLYLINE
  8
31
  6
CONTINUOUS
  5
C3
 66
     1
 10
0.0
 20
0.0
 30
0.0
 40
0.01
 41
0.01
  0
VERTEX
  8
31
  5
C4
 10
15329.0
 20
49546.43
 30
0.0
  0
VERTEX
  8
31
  5
C5
 10
15322.94
 20
49546.36
 30
0.0
  0
SEQEND
  8
0
  5
C6
  0
POLYLINE
  8
31
  6
CONTINUOUS
  5
C7
 66
     1
 10
0.0
 20
0.0
 30
0.0
 40
0.01
 41
0.01
  0
VERTEX
  8
31
  5
C8
 10
15322.94
 20
49546.36
 30
0.0
  0
VERTEX
  8
31
  5
C9
 10
15306.51
 20
49546.18
 30
0.0
  0
SEQEND
  8
0
  5
CA
  0
POLYLINE
  8
31
  6
CONTINUOUS
  5
CB
 66
     1
 10
0.0
 20
0.0
 30
0.0
 40
0.01
 41
0.01
  0
VERTEX
  8
31
  5
CC
 10
15306.51
 20
49546.18
 30
0.0
  0
VERTEX
  8
31
  5
CD
 10
15290.08
 20
49546.0
 30
0.0
  0
SEQEND
  8
0
  5
CE
  0
POLYLINE
  8
31
  6
CONTINUOUS
  5
CF
 66
     1
 10
0.0
 20
0.0
 30
0.0
 40
0.01
 41
0.01
  0
VERTEX
  8
31
  5
D0
 10
15290.08
 20
49546.0
 30
0.0
  0
VERTEX
  8
31
  5
D1
 10
15273.65
 20
49545.83
 30
0.0
  0
SEQEND
  8
0
  5
D2
  0
POLYLINE
  8
31
  6
CONTINUOUS
  5
D3
 66
     1
 10
0.0
 20
0.0
 30
0.0
 40
0.01
 41
0.01
  0
VERTEX
  8
31
  5
D4
 10
15273.65
 20
49545.83
 30
0.0
  0
VERTEX
  8
31
  5
D5
 10
15257.22
 20
49545.65
 30
0.0
  0
SEQEND
  8
0
  5
D6
  0
POLYLINE
  8
31
  6
CONTINUOUS
  5
D7
 66
     1
 10
0.0
 20
0.0
 30
0.0
 40
0.01
 41
0.01
  0
VERTEX
  8
31
  5
D8
 10
15257.22
 20
49545.65
 30
0.0
  0
VERTEX
  8
31
  5
D9
 10
15240.8
 20
49545.47
 30
0.0
  0
SEQEND
  8
0
  5
DA
  0
POLYLINE
  8
31
  6
CONTINUOUS
  5
DB
 66
     1
 10
0.0
 20
0.0
 30
0.0
 40
0.01
 41
0.01
  0
VERTEX
  8
31
  5
DC
 10
15240.8
 20
49545.47
 30
0.0
  0
VERTEX
  8
31
  5
DD
 10
15222.39
 20
49545.27
 30
0.0
  0
SEQEND
  8
0
  5
DE
  0
POLYLINE
  8
31
  6
CONTINUOUS
  5
DF
 66
     1
 10
0.0
 20
0.0
 30
0.0
 40
0.01
 41
0.01
  0
VERTEX
  8
31
  5
E0
 10
15222.39
 20
49545.27
 30
0.0
  0
VERTEX
  8
31
  5
E1
 10
15222.07
 20
49511.25
 30
0.0
  0
SEQEND
  8
0
  5
E2
  0
POLYLINE
  8
31
  6
CONTINUOUS
  5
E3
 66
     1
 10
0.0
 20
0.0
 30
0.0
 40
0.01
 41
0.01
  0
VERTEX
  8
31
  5
E4
 10
15222.07
 20
49511.25
 30
0.0
  0
VERTEX
  8
31
  5
E5
 10
15221.91
 20
49494.55
 30
0.0
  0
SEQEND
  8
0
  5
E6
  0
POLYLINE
  8
31
  6
CONTINUOUS
  5
E7
 66
     1
 10
0.0
 20
0.0
 30
0.0
 40
0.01
 41
0.01
  0
VERTEX
  8
31
  5
E8
 10
15221.91
 20
49494.55
 30
0.0
  0
VERTEX
  8
31
  5
E9
 10
15221.75
 20
49477.86
 30
0.0
  0
SEQEND
  8
0
  5
EA
  0
POLYLINE
  8
31
  6
CONTINUOUS
  5
EB
 66
     1
 10
0.0
 20
0.0
 30
0.0
 40
0.01
 41
0.01
  0
VERTEX
  8
31
  5
EC
 10
15221.75
 20
49477.86
 30
0.0
  0
VERTEX
  8
31
  5
ED
 10
15221.59
 20
49461.16
 30
0.0
  0
SEQEND
  8
0
  5
EE
  0
POLYLINE
  8
31
  6
CONTINUOUS
  5
EF
 66
     1
 10
0.0
 20
0.0
 30
0.0
 40
0.01
 41
0.01
  0
VERTEX
  8
31
  5
F0
 10
15221.59
 20
49461.16
 30
0.0
  0
VERTEX
  8
31
  5
F1
 10
15221.43
 20
49444.46
 30
0.0
  0
SEQEND
  8
0
  5
F2
  0
POLYLINE
  8
31
  6
CONTINUOUS
  5
F3
 66
     1
 10
0.0
 20
0.0
 30
0.0
 40
0.01
 41
0.01
  0
VERTEX
  8
31
  5
F4
 10
15221.43
 20
49444.46
 30
0.0
  0
VERTEX
  8
31
  5
F5
 10
15221.25
 20
49425.75
 30
0.0
  0
SEQEND
  8
0
  5
F6
  0
POLYLINE
  8
31
  6
CONTINUOUS
  5
F7
 66
     1
 10
0.0
 20
0.0
 30
0.0
 40
0.01
 41
0.01
  0
VERTEX
  8
31
  5
F8
 10
15221.25
 20
49425.75
 30
0.0
  0
VERTEX
  8
31
  5
F9
 10
15221.09
 20
49408.76
 30
0.0
  0
SEQEND
  8
0
  5
FA
  0
POLYLINE
  8
31
  6
CONTINUOUS
  5
FB
 66
     1
 10
0.0
 20
0.0
 30
0.0
 40
0.01
 41
0.01
  0
VERTEX
  8
31
  5
FC
 10
15329.0
 20
49479.72
 30
0.0
  0
VERTEX
  8
31
  5
FD
 10
15318.38
 20
49479.61
 30
0.0
  0
SEQEND
  8
0
  5
FE
  0
POLYLINE
  8
31
  6
CONTINUOUS
  5
FF
 66
     1
 10
0.0
 20
0.0
 30
0.0
 40
0.01
 41
0.01
  0
VERTEX
  8
31
  5
100
 10
15318.38
 20
49479.61
 30
0.0
  0
VERTEX
  8
31
  5
101
 10
15301.32
 20
49479.42
 30
0.0
  0
SEQEND
  8
0
  5
102
  0
POLYLINE
  8
31
  6
CONTINUOUS
  5
103
 66
     1
 10
0.0
 20
0.0
 30
0.0
 40
0.01
 41
0.01
  0
VERTEX
  8
31
  5
104
 10
15329.0
 20
49453.93
 30
0.0
  0
VERTEX
  8
31
  5
105
 10
15326.61
 20
49453.0
 30
0.0
  0
SEQEND
  8
0
  5
106
  0
POLYLINE
  8
31
  6
CONTINUOUS
  5
107
 66
     1
 10
0.0
 20
0.0
 30
0.0
 40
0.01
 41
0.01
  0
VERTEX
  8
31
  5
108
 10
15326.61
 20
49453.0
 30
0.0
  0
VERTEX
  8
31
  5
109
 10
15321.02
 20
49450.82
 30
0.0
  0
SEQEND
  8
0
  5
10A
  0
POLYLINE
  8
31
  6
CONTINUOUS
  5
10B
 66
     1
 10
0.0
 20
0.0
 30
0.0
 40
0.01
 41
0.01
  0
VERTEX
  8
31
  5
10C
 10
15321.02
 20
49450.82
 30
0.0
  0
VERTEX
  8
31
  5
10D
 10
15313.66
 20
49447.95
 30
0.0
  0
SEQEND
  8
0
  5
10E
  0
POLYLINE
  8
31
  6
CONTINUOUS
  5
10F
 66
     1
 10
0.0
 20
0.0
 30
0.0
 40
0.01
 41
0.01
  0
VERTEX
  8
31
  5
110
 10
15313.66
 20
49447.95
 30
0.0
  0
VERTEX
  8
31
  5
111
 10
15304.29
 20
49447.85
 30
0.0
  0
SEQEND
  8
0
  5
112
  0
POLYLINE
  8
31
  6
CONTINUOUS
  5
113
 66
     1
 10
0.0
 20
0.0
 30
0.0
 40
0.01
 41
0.01
  0
VERTEX
  8
31
  5
114
 10
15304.29
 20
49447.85
 30
0.0
  0
VERTEX
  8
31
  5
115
 10
15301.67
 20
49447.82
 30
0.0
  0
SEQEND
  8
0
  5
116
  0
POLYLINE
  8
31
  6
CONTINUOUS
  5
117
 66
     1
 10
0.0
 20
0.0
 30
0.0
 40
0.01
 41
0.01
  0
VERTEX
  8
31
  6
CONTINUOUS
  5
118
 10
15301.32
 20
49479.42
 30
0.0
 42
0.16
  0
VERTEX
  8
31
  6
CONTINUOUS
  5
119
 10
15291.79
 20
49476.09
 30
0.0
 42
0.16
  0
SEQEND
  8
0
  5
11A
  0
POLYLINE
  8
31
  6
CONTINUOUS
  5
11B
 66
     1
 10
0.0
 20
0.0
 30
0.0
 40
0.01
 41
0.01
  0
VERTEX
  8
31
  6
CONTINUOUS
  5
11C
 10
15291.79
 20
49476.09
 30
0.0
 42
0.16
  0
VERTEX
  8
31
  6
CONTINUOUS
  5
11D
 10
15286.22
 20
49467.66
 30
0.0
 42
0.16
  0
SEQEND
  8
0
  5
11E
  0
POLYLINE
  8
31
  6
CONTINUOUS
  5
11F
 66
     1
 10
0.0
 20
0.0
 30
0.0
 40
0.01
 41
0.01
  0
VERTEX
  8
31
  6
CONTINUOUS
  5
120
 10
15286.22
 20
49467.66
 30
0.0
 42
0.16
  0
VERTEX
  8
31
  6
CONTINUOUS
  5
121
 10
15286.89
 20
49457.58
 30
0.0
 42
0.16
  0
SEQEND
  8
0
  5
122
  0
POLYLINE
  8
31
  6
CONTINUOUS
  5
123
 66
     1
 10
0.0
 20
0.0
 30
0.0
 40
0.01
 41
0.01
  0
VERTEX
  8
31
  6
CONTINUOUS
  5
124
 10
15286.89
 20
49457.58
 30
0.0
 42
0.16
  0
VERTEX
  8
31
  6
CONTINUOUS
  5
125
 10
15293.54
 20
49449.97
 30
0.0
 42
0.16
  0
SEQEND
  8
0
  5
126
  0
POLYLINE
  8
31
  6
CONTINUOUS
  5
127
 66
     1
 10
0.0
 20
0.0
 30
0.0
 40
0.01
 41
0.01
  0
VERTEX
  8
31
  6
CONTINUOUS
  5
128
 10
15293.54
 20
49449.97
 30
0.0
 42
0.14
  0
VERTEX
  8
31
  6
CONTINUOUS
  5
129
 10
15301.67
 20
49447.82
 30
0.0
 42
0.14
  0
SEQEND
  8
0
  5
12A
  0
LINE
  8
32
  6
CONTINUOUS
  5
12B
 10
15329.0
 20
49446.89
 30
0.0
 11
15326.61
 21
49453.0
 31
0.0
  0
LINE
  8
32
  6
CONTINUOUS
  5
12C
 10
15221.25
 20
49425.75
 30
0.0
 11
15254.64
 21
49426.12
 31
0.0
  0
LINE
  8
32
  6
CONTINUOUS
  5
12D
 10
15222.87
 20
49605.56
 30
0.0
 11
15239.35
 21
49605.74
 31
0.0
  0
LINE
  8
32
  6
CONTINUOUS
  5
12E
 10
15239.35
 20
49605.74
 30
0.0
 11
15254.59
 21
49605.91
 31
0.0
  0
LINE
  8
32
  6
CONTINUOUS
  5
12F
 10
15254.59
 20
49605.91
 30
0.0
 11
15269.83
 21
49606.07
 31
0.0
  0
LINE
  8
32
  6
CONTINUOUS
  5
130
 10
15269.83
 20
49606.07
 30
0.0
 11
15285.07
 21
49606.24
 31
0.0
  0
LINE
  8
32
  6
CONTINUOUS
  5
131
 10
15285.07
 20
49606.24
 30
0.0
 11
15300.3
 21
49606.4
 31
0.0
  0
LINE
  8
32
  6
CONTINUOUS
  5
132
 10
15300.3
 20
49606.4
 30
0.0
 11
15315.54
 21
49606.57
 31
0.0
  0
LINE
  8
32
  6
CONTINUOUS
  5
133
 10
15315.54
 20
49606.57
 30
0.0
 11
15329.0
 21
49606.71
 31
0.0
  0
POLYLINE
  8
31
  6
CONTINUOUS
  5
134
 66
     1
 10
0.0
 20
0.0
 30
0.0
 40
0.01
 41
0.01
  0
VERTEX
  8
31
  5
135
 10
15224.63
 20
49246.11
 30
0.0
  0
VERTEX
  8
31
  5
136
 10
15254.22
 20
49246.4
 30
0.0
  0
SEQEND
  8
0
  5
137
  0
POLYLINE
  8
31
  6
CONTINUOUS
  5
138
 66
     1
 10
0.0
 20
0.0
 30
0.0
 40
0.01
 41
0.01
  0
VERTEX
  8
31
  5
139
 10
15254.22
 20
49246.4
 30
0.0
  0
VERTEX
  8
31
  5
13A
 10
15280.32
 20
49246.66
 30
0.0
  0
SEQEND
  8
0
  5
13B
  0
POLYLINE
  8
31
  6
CONTINUOUS
  5
13C
 66
     1
 10
0.0
 20
0.0
 30
0.0
 40
0.01
 41
0.01
  0
VERTEX
  8
31
  5
13D
 10
15285.27
 20
49251.61
 30
0.0
  0
VERTEX
  8
31
  5
13E
 10
15285.42
 20
49267.44
 30
0.0
  0
SEQEND
  8
0
  5
13F
  0
POLYLINE
  8
31
  6
CONTINUOUS
  5
140
 66
     1
 10
0.0
 20
0.0
 30
0.0
 40
0.01
 41
0.01
  0
VERTEX
  8
31
  5
141
 10
15285.42
 20
49267.44
 30
0.0
  0
VERTEX
  8
31
  5
142
 10
15285.6
 20
49286.19
 30
0.0
  0
SEQEND
  8
0
  5
143
  0
POLYLINE
  8
31
  6
CONTINUOUS
  5
144
 66
     1
 10
0.0
 20
0.0
 30
0.0
 40
0.01
 41
0.01
  0
VERTEX
  8
31
  5
145
 10
15285.6
 20
49286.19
 30
0.0
  0
VERTEX
  8
31
  5
146
 10
15285.78
 20
49304.94
 30
0.0
  0
SEQEND
  8
0
  5
147
  0
POLYLINE
  8
31
  6
CONTINUOUS
  5
148
 66
     1
 10
0.0
 20
0.0
 30
0.0
 40
0.01
 41
0.01
  0
VERTEX
  8
31
  5
149
 10
15285.78
 20
49304.94
 30
0.0
  0
VERTEX
  8
31
  5
14A
 10
15285.96
 20
49323.69
 30
0.0
  0
SEQEND
  8
0
  5
14B
  0
POLYLINE
  8
31
  6
CONTINUOUS
  5
14C
 66
     1
 10
0.0
 20
0.0
 30
0.0
 40
0.01
 41
0.01
  0
VERTEX
  8
31
  5
14D
 10
15285.96
 20
49323.69
 30
0.0
  0
VERTEX
  8
31
  5
14E
 10
15286.14
 20
49342.44
 30
0.0
  0
SEQEND
  8
0
  5
14F
  0
POLYLINE
  8
31
  6
CONTINUOUS
  5
150
 66
     1
 10
0.0
 20
0.0
 30
0.0
 40
0.01
 41
0.01
  0
VERTEX
  8
31
  5
151
 10
15286.14
 20
49342.44
 30
0.0
  0
VERTEX
  8
31
  5
152
 10
15286.32
 20
49361.19
 30
0.0
  0
SEQEND
  8
0
  5
153
  0
POLYLINE
  8
31
  6
CONTINUOUS
  5
154
 66
     1
 10
0.0
 20
0.0
 30
0.0
 40
0.01
 41
0.01
  0
VERTEX
  8
31
  5
155
 10
15317.92
 20
49360.89
 30
0.0
  0
VERTEX
  8
31
  5
156
 10
15317.82
 20
49350.89
 30
0.0
  0
SEQEND
  8
0
  5
157
  0
POLYLINE
  8
31
  6
CONTINUOUS
  5
158
 66
     1
 10
0.0
 20
0.0
 30
0.0
 40
0.01
 41
0.01
  0
VERTEX
  8
31
  5
159
 10
15317.82
 20
49350.89
 30
0.0
  0
VERTEX
  8
31
  5
15A
 10
15317.8
 20
49348.89
 30
0.0
  0
SEQEND
  8
0
  5
15B
  0
POLYLINE
  8
31
  6
CONTINUOUS
  5
15C
 66
     1
 10
0.0
 20
0.0
 30
0.0
 40
0.01
 41
0.01
  0
VERTEX
  8
31
  5
15D
 10
15316.03
 20
49344.73
 30
0.0
  0
VERTEX
  8
31
  5
15E
 10
15304.28
 20
49333.2
 30
0.0
  0
SEQEND
  8
0
  5
15F
  0
POLYLINE
  8
31
  6
CONTINUOUS
  5
160
 66
     1
 10
0.0
 20
0.0
 30
0.0
 40
0.01
 41
0.01
  0
VERTEX
  8
31
  5
161
 10
15302.51
 20
49329.04
 30
0.0
  0
VERTEX
  8
31
  5
162
 10
15302.38
 20
49315.19
 30
0.0
  0
SEQEND
  8
0
  5
163
  0
POLYLINE
  8
31
  6
CONTINUOUS
  5
164
 66
     1
 10
0.0
 20
0.0
 30
0.0
 40
0.01
 41
0.01
  0
VERTEX
  8
31
  5
165
 10
15302.38
 20
49315.19
 30
0.0
  0
VERTEX
  8
31
  5
166
 10
15302.21
 20
49297.19
 30
0.0
  0
SEQEND
  8
0
  5
167
  0
POLYLINE
  8
31
  6
CONTINUOUS
  5
168
 66
     1
 10
0.0
 20
0.0
 30
0.0
 40
0.01
 41
0.01
  0
VERTEX
  8
31
  5
169
 10
15302.21
 20
49297.19
 30
0.0
  0
VERTEX
  8
31
  5
16A
 10
15302.03
 20
49279.19
 30
0.0
  0
SEQEND
  8
0
  5
16B
  0
POLYLINE
  8
31
  6
CONTINUOUS
  5
16C
 66
     1
 10
0.0
 20
0.0
 30
0.0
 40
0.01
 41
0.01
  0
VERTEX
  8
31
  5
16D
 10
15302.03
 20
49279.19
 30
0.0
  0
VERTEX
  8
31
  5
16E
 10
15301.86
 20
49261.19
 30
0.0
  0
SEQEND
  8
0
  5
16F
  0
POLYLINE
  8
31
  6
CONTINUOUS
  5
170
 66
     1
 10
0.0
 20
0.0
 30
0.0
 40
0.01
 41
0.01
  0
VERTEX
  8
31
  5
171
 10
15301.86
 20
49261.19
 30
0.0
  0
VERTEX
  8
31
  5
172
 10
15301.77
 20
49252.08
 30
0.0
  0
SEQEND
  8
0
  5
173
  0
POLYLINE
  8
31
  6
CONTINUOUS
  5
174
 66
     1
 10
0.0
 20
0.0
 30
0.0
 40
0.01
 41
0.01
  0
VERTEX
  8
31
  6
CONTINUOUS
  5
175
 10
15301.77
 20
49252.08
 30
0.0
 42
0.2
  0
VERTEX
  8
31
  6
CONTINUOUS
  5
176
 10
15303.25
 20
49248.48
 30
0.0
 42
0.2
  0
SEQEND
  8
0
  5
177
  0
POLYLINE
  8
31
  6
CONTINUOUS
  5
178
 66
     1
 10
0.0
 20
0.0
 30
0.0
 40
0.01
 41
0.01
  0
VERTEX
  8
31
  6
CONTINUOUS
  5
179
 10
15304.28
 20
49333.2
 30
0.0
 42
0.2
  0
VERTEX
  8
31
  6
CONTINUOUS
  5
17A
 10
15302.51
 20
49329.04
 30
0.0
 42
0.2
  0
SEQEND
  8
0
  5
17B
  0
POLYLINE
  8
31
  6
CONTINUOUS
  5
17C
 66
     1
 10
0.0
 20
0.0
 30
0.0
 40
0.01
 41
0.01
  0
VERTEX
  8
31
  6
CONTINUOUS
  5
17D
 10
15316.03
 20
49344.73
 30
0.0
 42
0.2
  0
VERTEX
  8
31
  6
CONTINUOUS
  5
17E
 10
15317.8
 20
49348.89
 30
0.0
 42
0.2
  0
SEQEND
  8
0
  5
17F
  0
POLYLINE
  8
31
  6
CONTINUOUS
  5
180
 66
     1
 10
0.0
 20
0.0
 30
0.0
 40
0.01
 41
0.01
  0
VERTEX
  8
31
  6
CONTINUOUS
  5
181
 10
15317.92
 20
49360.89
 30
0.0
 42
0.06
  0
VERTEX
  8
31
  6
CONTINUOUS
  5
182
 10
15317.48
 20
49364.75
 30
0.0
 42
0.06
  0
SEQEND
  8
0
  5
183
  0
POLYLINE
  8
31
  6
CONTINUOUS
  5
184
 66
     1
 10
0.0
 20
0.0
 30
0.0
 40
0.01
 41
0.01
  0
VERTEX
  8
31
  6
CONTINUOUS
  5
185
 10
15317.48
 20
49364.75
 30
0.0
 42
0.14
  0
VERTEX
  8
31
  6
CONTINUOUS
  5
186
 10
15313.11
 20
49372.39
 30
0.0
 42
0.14
  0
SEQEND
  8
0
  5
187
  0
POLYLINE
  8
31
  6
CONTINUOUS
  5
188
 66
     1
 10
0.0
 20
0.0
 30
0.0
 40
0.01
 41
0.01
  0
VERTEX
  8
31
  6
CONTINUOUS
  5
189
 10
15313.11
 20
49372.39
 30
0.0
 42
0.1
  0
VERTEX
  8
31
  6
CONTINUOUS
  5
18A
 10
15308.11
 20
49375.66
 30
0.0
 42
0.1
  0
SEQEND
  8
0
  5
18B
  0
POLYLINE
  8
31
  6
CONTINUOUS
  5
18C
 66
     1
 10
0.0
 20
0.0
 30
0.0
 40
0.01
 41
0.01
  0
VERTEX
  8
31
  6
CONTINUOUS
  5
18D
 10
15308.11
 20
49375.66
 30
0.0
 42
0.16
  0
VERTEX
  8
31
  6
CONTINUOUS
  5
18E
 10
15298.03
 20
49376.3
 30
0.0
 42
0.16
  0
SEQEND
  8
0
  5
18F
  0
POLYLINE
  8
31
  6
CONTINUOUS
  5
190
 66
     1
 10
0.0
 20
0.0
 30
0.0
 40
0.01
 41
0.01
  0
VERTEX
  8
31
  6
CONTINUOUS
  5
191
 10
15298.03
 20
49376.3
 30
0.0
 42
0.16
  0
VERTEX
  8
31
  6
CONTINUOUS
  5
192
 10
15289.62
 20
49370.71
 30
0.0
 42
0.16
  0
SEQEND
  8
0
  5
193
  0
POLYLINE
  8
31
  6
CONTINUOUS
  5
194
 66
     1
 10
0.0
 20
0.0
 30
0.0
 40
0.01
 41
0.01
  0
VERTEX
  8
31
  6
CONTINUOUS
  5
195
 10
15289.62
 20
49370.71
 30
0.0
 42
0.16
  0
VERTEX
  8
31
  6
CONTINUOUS
  5
196
 10
15286.32
 20
49361.19
 30
0.0
 42
0.16
  0
SEQEND
  8
0
  5
197
  0
POLYLINE
  8
31
  6
CONTINUOUS
  5
198
 66
     1
 10
0.0
 20
0.0
 30
0.0
 40
0.01
 41
0.01
  0
VERTEX
  8
31
  6
CONTINUOUS
  5
199
 10
15280.32
 20
49246.66
 30
0.0
 42
0.41
  0
VERTEX
  8
31
  6
CONTINUOUS
  5
19A
 10
15285.27
 20
49251.61
 30
0.0
 42
0.41
  0
SEQEND
  8
0
  5
19B
  0
POLYLINE
  8
31
  6
CONTINUOUS
  5
19C
 66
     1
 10
0.0
 20
0.0
 30
0.0
 40
0.01
 41
0.01
  0
VERTEX
  8
31
  6
CONTINUOUS
  5
19D
 10
15219.58
 20
49251.16
 30
0.0
 42
0.42
  0
VERTEX
  8
31
  6
CONTINUOUS
  5
19E
 10
15224.63
 20
49246.11
 30
0.0
 42
0.42
  0
SEQEND
  8
0
  5
19F
  0
POLYLINE
  8
31
  6
CONTINUOUS
  5
1A0
 66
     1
 10
0.0
 20
0.0
 30
0.0
 40
0.01
 41
0.01
  0
VERTEX
  8
31
  6
CONTINUOUS
  5
1A1
 10
15301.66
 20
49227.24
 30
0.0
 42
0.12
  0
VERTEX
  8
31
  6
CONTINUOUS
  5
1A2
 10
15305.88
 20
49232.2
 30
0.0
 42
0.12
  0
SEQEND
  8
0
  5
1A3
  0
POLYLINE
  8
31
  6
CONTINUOUS
  5
1A4
 66
     1
 10
0.0
 20
0.0
 30
0.0
 40
0.01
 41
0.01
  0
VERTEX
  8
31
  6
CONTINUOUS
  5
1A5
 10
15305.88
 20
49232.2
 30
0.0
 42
0.12
  0
VERTEX
  8
31
  6
CONTINUOUS
  5
1A6
 10
15307.39
 20
49238.54
 30
0.0
 42
0.12
  0
SEQEND
  8
0
  5
1A7
  0
POLYLINE
  8
31
  6
CONTINUOUS
  5
1A8
 66
     1
 10
0.0
 20
0.0
 30
0.0
 40
0.01
 41
0.01
  0
VERTEX
  8
31
  6
CONTINUOUS
  5
1A9
 10
15307.18
 20
49241.0
 30
0.0
 42
0.15
  0
VERTEX
  8
31
  6
CONTINUOUS
  5
1AA
 10
15303.25
 20
49248.48
 30
0.0
 42
0.15
  0
SEQEND
  8
0
  5
1AB
  0
POLYLINE
  8
31
  6
CONTINUOUS
  5
1AC
 66
     1
 10
0.0
 20
0.0
 30
0.0
 40
0.01
 41
0.01
  0
VERTEX
  8
31
  5
1AD
 10
15307.18
 20
49241.0
 30
0.0
  0
VERTEX
  8
31
  5
1AE
 10
15329.0
 20
49237.92
 30
0.0
  0
SEQEND
  8
0
  5
1AF
  0
POLYLINE
  8
31
  6
CONTINUOUS
  5
1B0
 66
     1
 10
0.0
 20
0.0
 30
0.0
 40
0.01
 41
0.01
  0
VERTEX
  8
31
  5
1B1
 10
15329.0
 20
49235.5
 30
0.0
  0
VERTEX
  8
31
  5
1B2
 10
15307.39
 20
49238.54
 30
0.0
  0
SEQEND
  8
0
  5
1B3
  0
LINE
  8
32
  6
CONTINUOUS
  5
1B4
 10
15221.09
 20
49408.76
 30
0.0
 11
15255.78
 21
49409.1
 31
0.0
  0
LINE
  8
32
  6
CONTINUOUS
  5
1B5
 10
15255.78
 20
49409.1
 30
0.0
 11
15289.59
 21
49407.81
 31
0.0
  0
LINE
  8
32
  6
CONTINUOUS
  5
1B6
 10
15289.59
 20
49407.81
 30
0.0
 11
15320.8
 21
49406.63
 31
0.0
  0
LINE
  8
32
  6
CONTINUOUS
  5
1B7
 10
15320.8
 20
49406.63
 30
0.0
 11
15308.11
 21
49375.66
 31
0.0
  0
LINE
  8
32
  6
CONTINUOUS
  5
1B8
 10
15313.11
 20
49372.39
 30
0.0
 11
15329.0
 21
49400.95
 31
0.0
  0
LINE
  8
32
  6
CONTINUOUS
  5
1B9
 10
15329.0
 20
49205.56
 30
0.0
 11
15309.86
 21
49224.53
 31
0.0
  0
LINE
  8
32
  6
CONTINUOUS
  5
1BA
 10
15309.86
 20
49224.53
 30
0.0
 11
15305.88
 21
49232.2
 31
0.0
  0
LINE
  8
32
  6
CONTINUOUS
  5
1BB
 10
15301.86
 20
49261.19
 30
0.0
 11
15329.0
 21
49261.46
 31
0.0
  0
LINE
  8
32
  6
CONTINUOUS
  5
1BC
 10
15329.0
 20
49279.45
 30
0.0
 11
15302.03
 21
49279.19
 31
0.0
  0
LINE
  8
32
  6
CONTINUOUS
  5
1BD
 10
15329.0
 20
49297.45
 30
0.0
 11
15302.21
 21
49297.19
 31
0.0
  0
LINE
  8
32
  6
CONTINUOUS
  5
1BE
 10
15302.38
 20
49315.19
 30
0.0
 11
15329.0
 21
49315.45
 31
0.0
  0
LINE
  8
32
  6
CONTINUOUS
  5
1BF
 10
15329.0
 20
49333.45
 30
0.0
 11
15304.28
 21
49333.2
 31
0.0
  0
LINE
  8
32
  6
CONTINUOUS
  5
1C0
 10
15317.82
 20
49350.89
 30
0.0
 11
15329.0
 21
49350.78
 31
0.0
  0
LINE
  8
32
  6
CONTINUOUS
  5
1C1
 10
15329.0
 20
49367.53
 30
0.0
 11
15317.48
 21
49364.75
 31
0.0
  0
LINE
  8
32
  6
CONTINUOUS
  5
1C2
 10
15255.78
 20
49409.1
 30
0.0
 11
15255.66
 21
49396.97
 31
0.0
  0
LINE
  8
32
  6
CONTINUOUS
  5
1C3
 10
15255.66
 20
49396.97
 30
0.0
 11
15255.63
 21
49393.03
 31
0.0
  0
LINE
  8
32
  6
CONTINUOUS
  5
1C4
 10
15255.63
 20
49393.03
 30
0.0
 11
15255.47
 21
49376.96
 31
0.0
  0
LINE
  8
32
  6
CONTINUOUS
  5
1C5
 10
15255.47
 20
49376.96
 30
0.0
 11
15255.32
 21
49360.89
 31
0.0
  0
LINE
  8
32
  6
CONTINUOUS
  5
1C6
 10
15255.32
 20
49360.89
 30
0.0
 11
15255.16
 21
49344.81
 31
0.0
  0
LINE
  8
32
  6
CONTINUOUS
  5
1C7
 10
15255.16
 20
49344.81
 30
0.0
 11
15255.14
 21
49342.14
 31
0.0
  0
LINE
  8
32
  6
CONTINUOUS
  5
1C8
 10
15255.14
 20
49342.14
 30
0.0
 11
15255.01
 21
49328.74
 31
0.0
  0
LINE
  8
32
  6
CONTINUOUS
  5
1C9
 10
15255.01
 20
49328.74
 30
0.0
 11
15254.96
 21
49323.39
 31
0.0
  0
LINE
  8
32
  6
CONTINUOUS
  5
1CA
 10
15254.96
 20
49323.39
 30
0.0
 11
15254.86
 21
49312.67
 31
0.0
  0
LINE
  8
32
  6
CONTINUOUS
  5
1CB
 10
15254.86
 20
49312.67
 30
0.0
 11
15254.78
 21
49304.64
 31
0.0
  0
LINE
  8
32
  6
CONTINUOUS
  5
1CC
 10
15254.78
 20
49304.64
 30
0.0
 11
15254.7
 21
49296.6
 31
0.0
  0
LINE
  8
32
  6
CONTINUOUS
  5
1CD
 10
15254.7
 20
49296.6
 30
0.0
 11
15254.6
 21
49285.89
 31
0.0
  0
LINE
  8
32
  6
CONTINUOUS
  5
1CE
 10
15254.6
 20
49285.89
 30
0.0
 11
15254.55
 21
49280.53
 31
0.0
  0
LINE
  8
32
  6
CONTINUOUS
  5
1CF
 10
15254.55
 20
49280.53
 30
0.0
 11
15254.42
 21
49267.14
 31
0.0
  0
LINE
  8
32
  6
CONTINUOUS
  5
1D0
 10
15254.42
 20
49267.14
 30
0.0
 11
15254.4
 21
49264.46
 31
0.0
  0
LINE
  8
32
  6
CONTINUOUS
  5
1D1
 10
15254.4
 20
49264.46
 30
0.0
 11
15254.22
 21
49246.4
 31
0.0
  0
LINE
  8
32
  6
CONTINUOUS
  5
1D2
 10
15219.7
 20
49264.11
 30
0.0
 11
15254.4
 21
49264.46
 31
0.0
  0
LINE
  8
32
  6
CONTINUOUS
  5
1D3
 10
15254.42
 20
49267.14
 30
0.0
 11
15285.42
 21
49267.44
 31
0.0
  0
LINE
  8
32
  6
CONTINUOUS
  5
1D4
 10
15254.55
 20
49280.53
 30
0.0
 11
15219.86
 21
49280.19
 31
0.0
  0
LINE
  8
32
  6
CONTINUOUS
  5
1D5
 10
15254.6
 20
49285.89
 30
0.0
 11
15285.6
 21
49286.19
 31
0.0
  0
LINE
  8
32
  6
CONTINUOUS
  5
1D6
 10
15254.7
 20
49296.6
 30
0.0
 11
15220.01
 21
49296.26
 31
0.0
  0
LINE
  8
32
  6
CONTINUOUS
  5
1D7
 10
15254.78
 20
49304.64
 30
0.0
 11
15285.78
 21
49304.94
 31
0.0
  0
LINE
  8
32
  6
CONTINUOUS
  5
1D8
 10
15254.86
 20
49312.67
 30
0.0
 11
15220.16
 21
49312.33
 31
0.0
  0
LINE
  8
32
  6
CONTINUOUS
  5
1D9
 10
15254.96
 20
49323.39
 30
0.0
 11
15285.96
 21
49323.69
 31
0.0
  0
LINE
  8
32
  6
CONTINUOUS
  5
1DA
 10
15255.01
 20
49328.74
 30
0.0
 11
15220.32
 21
49328.4
 31
0.0
  0
LINE
  8
32
  6
CONTINUOUS
  5
1DB
 10
15255.14
 20
49342.14
 30
0.0
 11
15286.14
 21
49342.44
 31
0.0
  0
LINE
  8
32
  6
CONTINUOUS
  5
1DC
 10
15255.16
 20
49344.81
 30
0.0
 11
15220.47
 21
49344.47
 31
0.0
  0
LINE
  8
32
  6
CONTINUOUS
  5
1DD
 10
15220.62
 20
49360.54
 30
0.0
 11
15255.32
 21
49360.89
 31
0.0
  0
LINE
  8
32
  6
CONTINUOUS
  5
1DE
 10
15255.32
 20
49360.89
 30
0.0
 11
15286.32
 21
49361.19
 31
0.0
  0
LINE
  8
32
  6
CONTINUOUS
  5
1DF
 10
15255.47
 20
49376.96
 30
0.0
 11
15220.78
 21
49376.61
 31
0.0
  0
LINE
  8
32
  6
CONTINUOUS
  5
1E0
 10
15220.93
 20
49392.68
 30
0.0
 11
15255.63
 21
49393.03
 31
0.0
  0
LINE
  8
32
  6
CONTINUOUS
  5
1E1
 10
15255.66
 20
49396.97
 30
0.0
 11
15289.62
 21
49370.71
 31
0.0
  0
LINE
  8
32
  6
CONTINUOUS
  5
1E2
 10
15298.03
 20
49376.3
 30
0.0
 11
15289.59
 21
49407.81
 31
0.0
  0
POLYLINE
  8
31
  6
CONTINUOUS
  5
1E3
 66
     1
 10
0.0
 20
0.0
 30
0.0
 40
0.01
 41
0.01
  0
VERTEX
  8
31
  5
1E4
 10
15221.09
 20
49408.76
 30
0.0
  0
VERTEX
  8
31
  5
1E5
 10
15220.93
 20
49392.68
 30
0.0
  0
SEQEND
  8
0
  5
1E6
  0
POLYLINE
  8
31
  6
CONTINUOUS
  5
1E7
 66
     1
 10
0.0
 20
0.0
 30
0.0
 40
0.01
 41
0.01
  0
VERTEX
  8
31
  5
1E8
 10
15220.93
 20
49392.68
 30
0.0
  0
VERTEX
  8
31
  5
1E9
 10
15220.78
 20
49376.61
 30
0.0
  0
SEQEND
  8
0
  5
1EA
  0
POLYLINE
  8
31
  6
CONTINUOUS
  5
1EB
 66
     1
 10
0.0
 20
0.0
 30
0.0
 40
0.01
 41
0.01
  0
VERTEX
  8
31
  5
1EC
 10
15220.78
 20
49376.61
 30
0.0
  0
VERTEX
  8
31
  5
1ED
 10
15220.62
 20
49360.54
 30
0.0
  0
SEQEND
  8
0
  5
1EE
  0
POLYLINE
  8
31
  6
CONTINUOUS
  5
1EF
 66
     1
 10
0.0
 20
0.0
 30
0.0
 40
0.01
 41
0.01
  0
VERTEX
  8
31
  5
1F0
 10
15220.62
 20
49360.54
 30
0.0
  0
VERTEX
  8
31
  5
1F1
 10
15220.47
 20
49344.47
 30
0.0
  0
SEQEND
  8
0
  5
1F2
  0
POLYLINE
  8
31
  6
CONTINUOUS
  5
1F3
 66
     1
 10
0.0
 20
0.0
 30
0.0
 40
0.01
 41
0.01
  0
VERTEX
  8
31
  5
1F4
 10
15220.47
 20
49344.47
 30
0.0
  0
VERTEX
  8
31
  5
1F5
 10
15220.32
 20
49328.4
 30
0.0
  0
SEQEND
  8
0
  5
1F6
  0
POLYLINE
  8
31
  6
CONTINUOUS
  5
1F7
 66
     1
 10
0.0
 20
0.0
 30
0.0
 40
0.01
 41
0.01
  0
VERTEX
  8
31
  5
1F8
 10
15220.32
 20
49328.4
 30
0.0
  0
VERTEX
  8
31
  5
1F9
 10
15220.16
 20
49312.33
 30
0.0
  0
SEQEND
  8
0
  5
1FA
  0
POLYLINE
  8
31
  6
CONTINUOUS
  5
1FB
 66
     1
 10
0.0
 20
0.0
 30
0.0
 40
0.01
 41
0.01
  0
VERTEX
  8
31
  5
1FC
 10
15220.16
 20
49312.33
 30
0.0
  0
VERTEX
  8
31
  5
1FD
 10
15220.01
 20
49296.26
 30
0.0
  0
SEQEND
  8
0
  5
1FE
  0
POLYLINE
  8
31
  6
CONTINUOUS
  5
1FF
 66
     1
 10
0.0
 20
0.0
 30
0.0
 40
0.01
 41
0.01
  0
VERTEX
  8
31
  5
200
 10
15220.01
 20
49296.26
 30
0.0
  0
VERTEX
  8
31
  5
201
 10
15219.86
 20
49280.19
 30
0.0
  0
SEQEND
  8
0
  5
202
  0
POLYLINE
  8
31
  6
CONTINUOUS
  5
203
 66
     1
 10
0.0
 20
0.0
 30
0.0
 40
0.01
 41
0.01
  0
VERTEX
  8
31
  5
204
 10
15219.86
 20
49280.19
 30
0.0
  0
VERTEX
  8
31
  5
205
 10
15219.7
 20
49264.11
 30
0.0
  0
SEQEND
  8
0
  5
206
  0
POLYLINE
  8
31
  6
CONTINUOUS
  5
207
 66
     1
 10
0.0
 20
0.0
 30
0.0
 40
0.01
 41
0.01
  0
VERTEX
  8
31
  5
208
 10
15219.7
 20
49264.11
 30
0.0
  0
VERTEX
  8
31
  5
209
 10
15219.58
 20
49251.16
 30
0.0
  0
SEQEND
  8
0
  5
20A
  0
POLYLINE
  8
31
  6
CONTINUOUS
  5
20B
 66
     1
 10
0.0
 20
0.0
 30
0.0
 40
0.01
 41
0.01
  0
VERTEX
  8
31
  5
20C
 10
15258.52
 20
49229.95
 30
0.0
  0
VERTEX
  8
31
  5
20D
 10
15224.27
 20
49229.61
 30
0.0
  0
SEQEND
  8
0
  5
20E
  0
POLYLINE
  8
31
  6
CONTINUOUS
  5
20F
 66
     1
 10
0.0
 20
0.0
 30
0.0
 40
0.01
 41
0.01
  0
VERTEX
  8
31
  5
210
 10
15219.32
 20
49224.66
 30
0.0
  0
VERTEX
  8
31
  5
211
 10
15219.16
 20
49207.62
 30
0.0
  0
SEQEND
  8
0
  5
212
  0
POLYLINE
  8
31
  6
CONTINUOUS
  5
213
 66
     1
 10
0.0
 20
0.0
 30
0.0
 40
0.01
 41
0.01
  0
VERTEX
  8
31
  6
CONTINUOUS
  5
214
 10
15224.27
 20
49229.61
 30
0.0
 42
0.41
  0
VERTEX
  8
31
  6
CONTINUOUS
  5
215
 10
15219.32
 20
49224.66
 30
0.0
 42
0.41
  0
SEQEND
  8
0
  5
216
  0
LINE
  8
32
  6
CONTINUOUS
  5
217
 10
15219.16
 20
49207.62
 30
0.0
 11
15258.3
 21
49207.99
 31
0.0
  0
LINE
  8
32
  6
CONTINUOUS
  5
218
 10
15258.3
 20
49207.99
 30
0.0
 11
15258.52
 21
49229.95
 31
0.0
  0
LINE
  8
32
  6
CONTINUOUS
  5
219
 10
15258.3
 20
49207.99
 30
0.0
 11
15258.11
 21
49189.6
 31
0.0
  0
LINE
  8
32
  6
CONTINUOUS
  5
21A
 10
15258.05
 20
49183.6
 30
0.0
 11
15257.68
 21
49148.31
 31
0.0
  0
LINE
  8
32
  6
CONTINUOUS
  5
21B
 10
15280.12
 20
49230.16
 30
0.0
 11
15279.66
 21
49189.8
 31
0.0
  0
LINE
  8
32
  6
CONTINUOUS
  5
21C
 10
15279.59
 20
49183.8
 30
0.0
 11
15279.19
 21
49148.51
 31
0.0
  0
POLYLINE
  8
31
  6
CONTINUOUS
  5
21D
 66
     1
 10
0.0
 20
0.0
 30
0.0
 40
0.01
 41
0.01
  0
VERTEX
  8
31
  5
21E
 10
15257.68
 20
49148.31
 30
0.0
  0
VERTEX
  8
31
  5
21F
 10
15279.18
 20
49148.51
 30
0.0
  0
SEQEND
  8
0
  5
220
  0
POLYLINE
  8
31
  6
CONTINUOUS
  5
221
 66
     1
 10
0.0
 20
0.0
 30
0.0
 40
0.01
 41
0.01
  0
VERTEX
  8
31
  5
222
 10
15258.52
 20
49229.95
 30
0.0
  0
VERTEX
  8
31
  5
223
 10
15280.12
 20
49230.16
 30
0.0
  0
SEQEND
  8
0
  5
224
  0
POLYLINE
  8
31
  6
CONTINUOUS
  5
225
 66
     1
 10
0.0
 20
0.0
 30
0.0
 40
0.01
 41
0.01
  0
VERTEX
  8
31
  5
226
 10
15301.22
 20
49189.99
 30
0.0
  0
VERTEX
  8
31
  5
227
 10
15329.0
 20
49190.25
 30
0.0
  0
SEQEND
  8
0
  5
228
  0
POLYLINE
  8
31
  6
CONTINUOUS
  5
229
 66
     1
 10
0.0
 20
0.0
 30
0.0
 40
0.01
 41
0.01
  0
VERTEX
  8
31
  5
22A
 10
15219.16
 20
49207.62
 30
0.0
  0
VERTEX
  8
31
  5
22B
 10
15218.57
 20
49146.64
 30
0.0
  0
SEQEND
  8
0
  5
22C
  0
POLYLINE
  8
31
  6
CONTINUOUS
  5
22D
 66
     1
 10
0.0
 20
0.0
 30
0.0
 40
0.01
 41
0.01
  0
VERTEX
  8
31
  5
22E
 10
15218.57
 20
49146.64
 30
0.0
  0
VERTEX
  8
31
  5
22F
 10
15257.67
 20
49147.0
 30
0.0
  0
SEQEND
  8
0
  5
230
  0
POLYLINE
  8
31
  6
CONTINUOUS
  5
231
 66
     1
 10
0.0
 20
0.0
 30
0.0
 40
0.01
 41
0.01
  0
VERTEX
  8
31
  5
232
 10
15301.14
 20
49183.98
 30
0.0
  0
VERTEX
  8
31
  5
233
 10
15322.66
 20
49184.18
 30
0.0
  0
SEQEND
  8
0
  5
234
  0
POLYLINE
  8
31
  6
CONTINUOUS
  5
235
 66
     1
 10
0.0
 20
0.0
 30
0.0
 40
0.01
 41
0.01
  0
VERTEX
  8
31
  5
236
 10
15322.66
 20
49184.18
 30
0.0
  0
VERTEX
  8
31
  5
237
 10
15329.0
 20
49184.24
 30
0.0
  0
SEQEND
  8
0
  5
238
  0
POLYLINE
  8
31
  6
CONTINUOUS
  5
239
 66
     1
 10
0.0
 20
0.0
 30
0.0
 40
0.01
 41
0.01
  0
VERTEX
  8
31
  5
23A
 10
15202.78
 20
49605.34
 30
0.0
  0
VERTEX
  8
31
  5
23B
 10
15222.87
 20
49605.56
 30
0.0
  0
SEQEND
  8
0
  5
23C
  0
POLYLINE
  8
31
  6
CONTINUOUS
  5
23D
 66
     1
 10
0.0
 20
0.0
 30
0.0
 40
0.01
 41
0.01
  0
VERTEX
  8
31
  5
23E
 10
15222.87
 20
49605.56
 30
0.0
  0
VERTEX
  8
31
  5
23F
 10
15222.55
 20
49565.39
 30
0.0
  0
SEQEND
  8
0
  5
240
  0
POLYLINE
  8
31
  6
CONTINUOUS
  5
241
 66
     1
 10
0.0
 20
0.0
 30
0.0
 40
0.01
 41
0.01
  0
VERTEX
  8
31
  5
242
 10
14818.6
 20
49341.19
 30
0.0
  0
VERTEX
  8
31
  5
243
 10
14819.91
 20
49341.2
 30
0.0
  0
SEQEND
  8
0
  5
244
  0
POLYLINE
  8
31
  6
CONTINUOUS
  5
245
 66
     1
 10
0.0
 20
0.0
 30
0.0
 40
0.01
 41
0.01
  0
VERTEX
  8
31
  5
246
 10
14819.91
 20
49341.2
 30
0.0
  0
VERTEX
  8
31
  5
247
 10
14819.18
 20
49240.62
 30
0.0
  0
SEQEND
  8
0
  5
248
  0
POLYLINE
  8
31
  6
CONTINUOUS
  5
249
 66
     1
 10
0.0
 20
0.0
 30
0.0
 40
0.01
 41
0.01
  0
VERTEX
  8
31
  5
24A
 10
14819.18
 20
49240.62
 30
0.0
  0
VERTEX
  8
31
  5
24B
 10
14817.88
 20
49240.6
 30
0.0
  0
SEQEND
  8
0
  5
24C
  0
POLYLINE
  8
31
  6
CONTINUOUS
  5
24D
 66
     1
 10
0.0
 20
0.0
 30
0.0
 40
0.01
 41
0.01
  0
VERTEX
  8
31
  5
24E
 10
14817.88
 20
49240.6
 30
0.0
  0
VERTEX
  8
31
  5
24F
 10
14817.22
 20
49146.94
 30
0.0
  0
SEQEND
  8
0
  5
250
  0
POLYLINE
  8
31
  6
CONTINUOUS
  5
251
 66
     1
 10
0.0
 20
0.0
 30
0.0
 40
0.01
 41
0.01
  0
VERTEX
  8
31
  5
252
 10
14817.22
 20
49146.94
 30
0.0
  0
VERTEX
  8
31
  5
253
 10
14820.24
 20
49143.92
 30
0.0
  0
SEQEND
  8
0
  5
254
  0
POLYLINE
  8
31
  6
CONTINUOUS
  5
255
 66
     1
 10
0.0
 20
0.0
 30
0.0
 40
0.01
 41
0.01
  0
VERTEX
  8
31
  5
256
 10
14820.24
 20
49143.92
 30
0.0
  0
VERTEX
  8
31
  5
257
 10
14885.62
 20
49144.63
 30
0.0
  0
SEQEND
  8
0
  5
258
  0
LINE
  8
32
  6
CONTINUOUS
  5
259
 10
14886.31
 20
49241.43
 30
0.0
 11
14885.62
 21
49144.63
 31
0.0
  0
POLYLINE
  8
31
  6
CONTINUOUS
  5
25A
 66
     1
 10
0.0
 20
0.0
 30
0.0
 40
0.01
 41
0.01
  0
VERTEX
  8
31
  5
25B
 10
14819.44
 20
49450.86
 30
0.0
  0
VERTEX
  8
31
  5
25C
 10
14819.65
 20
49450.86
 30
0.0
  0
SEQEND
  8
0
  5
25D
  0
POLYLINE
  8
31
  6
CONTINUOUS
  5
25E
 66
     1
 10
0.0
 20
0.0
 30
0.0
 40
0.01
 41
0.01
  0
VERTEX
  8
31
  5
25F
 10
14818.6
 20
49341.19
 30
0.0
  0
VERTEX
  8
31
  5
260
 10
14819.66
 20
49450.86
 30
0.0
  0
SEQEND
  8
0
  5
261
  0
POLYLINE
  8
31
  6
CONTINUOUS
  5
262
 66
     1
 10
0.0
 20
0.0
 30
0.0
 40
0.01
 41
0.01
  0
VERTEX
  8
31
  5
263
 10
14819.66
 20
49450.86
 30
0.0
  0
VERTEX
  8
31
  5
264
 10
14819.44
 20
49450.86
 30
0.0
  0
SEQEND
  8
0
  5
265
  0
POLYLINE
  8
31
  6
CONTINUOUS
  5
266
 66
     1
 10
0.0
 20
0.0
 30
0.0
 40
0.01
 41
0.01
  0
VERTEX
  8
31
  5
267
 10
14819.44
 20
49450.86
 30
0.0
  0
VERTEX
  8
31
  5
268
 10
14820.18
 20
49551.44
 30
0.0
  0
SEQEND
  8
0
  5
269
  0
POLYLINE
  8
31
  6
CONTINUOUS
  5
26A
 66
     1
 10
0.0
 20
0.0
 30
0.0
 40
0.01
 41
0.01
  0
VERTEX
  8
31
  5
26B
 10
14820.18
 20
49551.44
 30
0.0
  0
VERTEX
  8
31
  5
26C
 10
14820.68
 20
49652.2
 30
0.0
  0
SEQEND
  8
0
  5
26D
  0
POLYLINE
  8
31
  6
CONTINUOUS
  5
26E
 66
     1
 10
0.0
 20
0.0
 30
0.0
 40
0.01
 41
0.01
  0
VERTEX
  8
31
  5
26F
 10
14820.68
 20
49652.2
 30
0.0
  0
VERTEX
  8
31
  5
270
 10
14820.87
 20
49689.7
 30
0.0
  0
SEQEND
  8
0
  5
271
  0
POLYLINE
  8
31
  6
CONTINUOUS
  5
272
 66
     1
 10
0.0
 20
0.0
 30
0.0
 40
0.01
 41
0.01
  0
VERTEX
  8
31
  5
273
 10
15202.78
 20
49605.34
 30
0.0
  0
VERTEX
  8
31
  5
274
 10
15202.43
 20
49565.18
 30
0.0
  0
SEQEND
  8
0
  5
275
  0
POLYLINE
  8
31
  6
CONTINUOUS
  5
276
 66
     1
 10
0.0
 20
0.0
 30
0.0
 40
0.01
 41
0.01
  0
VERTEX
  8
31
  5
277
 10
15202.43
 20
49565.18
 30
0.0
  0
VERTEX
  8
31
  5
278
 10
14906.6
 20
49562.41
 30
0.0
  0
SEQEND
  8
0
  5
279
  0
POLYLINE
  8
31
  6
CONTINUOUS
  5
27A
 66
     1
 10
0.0
 20
0.0
 30
0.0
 40
0.01
 41
0.01
  0
VERTEX
  8
31
  5
27B
 10
14906.6
 20
49562.41
 30
0.0
  0
VERTEX
  8
31
  5
27C
 10
14906.54
 20
49552.35
 30
0.0
  0
SEQEND
  8
0
  5
27D
  0
POLYLINE
  8
31
  6
CONTINUOUS
  5
27E
 66
     1
 10
0.0
 20
0.0
 30
0.0
 40
0.01
 41
0.01
  0
VERTEX
  8
31
  5
27F
 10
14906.54
 20
49552.35
 30
0.0
  0
VERTEX
  8
31
  5
280
 10
14905.85
 20
49451.76
 30
0.0
  0
SEQEND
  8
0
  5
281
  0
LINE
  8
32
  6
CONTINUOUS
  5
282
 10
14820.18
 20
49551.44
 30
0.0
 11
14906.54
 21
49552.35
 31
0.0
  0
LINE
  8
32
  6
CONTINUOUS
  5
283
 10
14820.68
 20
49652.2
 30
0.0
 11
14873.41
 21
49652.68
 31
0.0
  0
LINE
  8
32
  6
CONTINUOUS
  5
284
 10
14873.41
 20
49652.68
 30
0.0
 11
14873.59
 21
49689.7
 31
0.0
  0
POLYLINE
  8
31
  6
CONTINUOUS
  5
285
 66
     1
 10
0.0
 20
0.0
 30
0.0
 40
0.01
 41
0.01
  0
VERTEX
  8
31
  5
286
 10
15300.67
 20
49147.39
 30
0.0
  0
VERTEX
  8
31
  5
287
 10
15322.18
 20
49147.6
 30
0.0
  0
SEQEND
  8
0
  5
288
  0
POLYLINE
  8
31
  6
CONTINUOUS
  5
289
 66
     1
 10
0.0
 20
0.0
 30
0.0
 40
0.01
 41
0.01
  0
VERTEX
  8
31
  5
28A
 10
15322.18
 20
49147.6
 30
0.0
  0
VERTEX
  8
31
  5
28B
 10
15329.0
 20
49147.66
 30
0.0
  0
SEQEND
  8
0
  5
28C
  0
LINE
  8
32
  6
CONTINUOUS
  5
28D
 10
15322.66
 20
49184.18
 30
0.0
 11
15322.18
 21
49147.6
 31
0.0
  0
POLYLINE
  8
31
  6
CONTINUOUS
  5
28E
 66
     1
 10
0.0
 20
0.0
 30
0.0
 40
0.01
 41
0.01
  0
VERTEX
  8
31
  5
28F
 10
15257.68
 20
49148.31
 30
0.0
  0
VERTEX
  8
31
  5
290
 10
15257.67
 20
49147.0
 30
0.0
  0
SEQEND
  8
0
  5
291
  0
LINE
  8
32
  6
CONTINUOUS
  5
292
 10
15301.66
 20
49227.24
 30
0.0
 11
15301.22
 21
49189.99
 31
0.0
  0
POLYLINE
  8
31
  6
CONTINUOUS
  5
293
 66
     1
 10
0.0
 20
0.0
 30
0.0
 40
0.01
 41
0.01
  0
VERTEX
  8
31
  5
294
 10
15279.59
 20
49183.8
 30
0.0
  0
VERTEX
  8
31
  5
295
 10
15258.05
 20
49183.6
 30
0.0
  0
SEQEND
  8
0
  5
296
  0
POLYLINE
  8
31
  6
CONTINUOUS
  5
297
 66
     1
 10
0.0
 20
0.0
 30
0.0
 40
0.01
 41
0.01
  0
VERTEX
  8
31
  5
298
 10
15258.05
 20
49183.6
 30
0.0
  0
VERTEX
  8
31
  5
299
 10
15258.11
 20
49189.6
 30
0.0
  0
SEQEND
  8
0
  5
29A
  0
POLYLINE
  8
31
  6
CONTINUOUS
  5
29B
 66
     1
 10
0.0
 20
0.0
 30
0.0
 40
0.01
 41
0.01
  0
VERTEX
  8
31
  5
29C
 10
15258.11
 20
49189.6
 30
0.0
  0
VERTEX
  8
31
  5
29D
 10
15279.66
 20
49189.8
 30
0.0
  0
SEQEND
  8
0
  5
29E
  0
POLYLINE
  8
31
  6
CONTINUOUS
  5
29F
 66
     1
 10
0.0
 20
0.0
 30
0.0
 40
0.01
 41
0.01
  0
VERTEX
  8
31
  5
2A0
 10
15005.6
 20
49516.22
 30
0.0
  0
VERTEX
  8
31
  5
2A1
 10
15005.83
 20
49543.36
 30
0.0
  0
SEQEND
  8
0
  5
2A2
  0
POLYLINE
  8
31
  6
CONTINUOUS
  5
2A3
 66
     1
 10
0.0
 20
0.0
 30
0.0
 40
0.01
 41
0.01
  0
VERTEX
  8
31
  5
2A4
 10
15005.83
 20
49543.36
 30
0.0
  0
VERTEX
  8
31
  5
2A5
 10
14985.06
 20
49543.14
 30
0.0
  0
SEQEND
  8
0
  5
2A6
  0
POLYLINE
  8
31
  6
CONTINUOUS
  5
2A7
 66
     1
 10
0.0
 20
0.0
 30
0.0
 40
0.01
 41
0.01
  0
VERTEX
  8
31
  5
2A8
 10
14985.06
 20
49543.14
 30
0.0
  0
VERTEX
  8
31
  5
2A9
 10
14965.83
 20
49542.94
 30
0.0
  0
SEQEND
  8
0
  5
2AA
  0
POLYLINE
  8
31
  6
CONTINUOUS
  5
2AB
 66
     1
 10
0.0
 20
0.0
 30
0.0
 40
0.01
 41
0.01
  0
VERTEX
  8
31
  5
2AC
 10
14965.83
 20
49542.94
 30
0.0
  0
VERTEX
  8
31
  5
2AD
 10
14946.41
 20
49542.74
 30
0.0
  0
SEQEND
  8
0
  5
2AE
  0
POLYLINE
  8
31
  6
CONTINUOUS
  5
2AF
 66
     1
 10
0.0
 20
0.0
 30
0.0
 40
0.01
 41
0.01
  0
VERTEX
  8
31
  5
2B0
 10
14946.41
 20
49542.74
 30
0.0
  0
VERTEX
  8
31
  5
2B1
 10
14932.49
 20
49542.59
 30
0.0
  0
SEQEND
  8
0
  5
2B2
  0
POLYLINE
  8
31
  6
CONTINUOUS
  5
2B3
 66
     1
 10
0.0
 20
0.0
 30
0.0
 40
0.01
 41
0.01
  0
VERTEX
  8
31
  5
2B4
 10
14932.49
 20
49542.59
 30
0.0
  0
VERTEX
  8
31
  5
2B5
 10
14926.45
 20
49536.53
 30
0.0
  0
SEQEND
  8
0
  5
2B6
  0
POLYLINE
  8
31
  6
CONTINUOUS
  5
2B7
 66
     1
 10
0.0
 20
0.0
 30
0.0
 40
0.01
 41
0.01
  0
VERTEX
  8
31
  5
2B8
 10
14926.45
 20
49536.53
 30
0.0
  0
VERTEX
  8
31
  5
2B9
 10
14926.25
 20
49509.08
 30
0.0
  0
SEQEND
  8
0
  5
2BA
  0
POLYLINE
  8
31
  6
CONTINUOUS
  5
2BB
 66
     1
 10
0.0
 20
0.0
 30
0.0
 40
0.01
 41
0.01
  0
VERTEX
  8
31
  5
2BC
 10
14926.25
 20
49509.08
 30
0.0
  0
VERTEX
  8
31
  5
2BD
 10
14926.13
 20
49492.55
 30
0.0
  0
SEQEND
  8
0
  5
2BE
  0
POLYLINE
  8
31
  6
CONTINUOUS
  5
2BF
 66
     1
 10
0.0
 20
0.0
 30
0.0
 40
0.01
 41
0.01
  0
VERTEX
  8
31
  5
2C0
 10
14926.13
 20
49492.55
 30
0.0
  0
VERTEX
  8
31
  5
2C1
 10
14926.02
 20
49476.03
 30
0.0
  0
SEQEND
  8
0
  5
2C2
  0
POLYLINE
  8
31
  6
CONTINUOUS
  5
2C3
 66
     1
 10
0.0
 20
0.0
 30
0.0
 40
0.01
 41
0.01
  0
VERTEX
  8
31
  5
2C4
 10
14926.02
 20
49476.03
 30
0.0
  0
VERTEX
  8
31
  5
2C5
 10
14925.9
 20
49459.5
 30
0.0
  0
SEQEND
  8
0
  5
2C6
  0
POLYLINE
  8
31
  6
CONTINUOUS
  5
2C7
 66
     1
 10
0.0
 20
0.0
 30
0.0
 40
0.01
 41
0.01
  0
VERTEX
  8
31
  5
2C8
 10
14925.9
 20
49459.5
 30
0.0
  0
VERTEX
  8
31
  5
2C9
 10
14925.63
 20
49422.83
 30
0.0
  0
SEQEND
  8
0
  5
2CA
  0
POLYLINE
  8
31
  6
CONTINUOUS
  5
2CB
 66
     1
 10
0.0
 20
0.0
 30
0.0
 40
0.01
 41
0.01
  0
VERTEX
  8
31
  5
2CC
 10
14925.63
 20
49422.83
 30
0.0
  0
VERTEX
  8
31
  5
2CD
 10
14943.63
 20
49422.7
 30
0.0
  0
SEQEND
  8
0
  5
2CE
  0
POLYLINE
  8
31
  6
CONTINUOUS
  5
2CF
 66
     1
 10
0.0
 20
0.0
 30
0.0
 40
0.01
 41
0.01
  0
VERTEX
  8
31
  5
2D0
 10
14943.63
 20
49422.7
 30
0.0
  0
VERTEX
  8
31
  5
2D1
 10
14961.63
 20
49422.57
 30
0.0
  0
SEQEND
  8
0
  5
2D2
  0
POLYLINE
  8
31
  6
CONTINUOUS
  5
2D3
 66
     1
 10
0.0
 20
0.0
 30
0.0
 40
0.01
 41
0.01
  0
VERTEX
  8
31
  5
2D4
 10
14961.63
 20
49422.57
 30
0.0
  0
VERTEX
  8
31
  5
2D5
 10
14979.63
 20
49422.44
 30
0.0
  0
SEQEND
  8
0
  5
2D6
  0
POLYLINE
  8
31
  6
CONTINUOUS
  5
2D7
 66
     1
 10
0.0
 20
0.0
 30
0.0
 40
0.01
 41
0.01
  0
VERTEX
  8
31
  5
2D8
 10
14979.63
 20
49422.44
 30
0.0
  0
VERTEX
  8
31
  5
2D9
 10
14997.63
 20
49422.31
 30
0.0
  0
SEQEND
  8
0
  5
2DA
  0
POLYLINE
  8
31
  6
CONTINUOUS
  5
2DB
 66
     1
 10
0.0
 20
0.0
 30
0.0
 40
0.01
 41
0.01
  0
VERTEX
  8
31
  5
2DC
 10
14997.63
 20
49422.31
 30
0.0
  0
VERTEX
  8
31
  5
2DD
 10
15015.0
 20
49422.19
 30
0.0
  0
SEQEND
  8
0
  5
2DE
  0
POLYLINE
  8
31
  6
CONTINUOUS
  5
2DF
 66
     1
 10
0.0
 20
0.0
 30
0.0
 40
0.01
 41
0.01
  0
VERTEX
  8
31
  5
2E0
 10
15014.88
 20
49405.69
 30
0.0
  0
VERTEX
  8
31
  5
2E1
 10
14997.51
 20
49405.81
 30
0.0
  0
SEQEND
  8
0
  5
2E2
  0
POLYLINE
  8
31
  6
CONTINUOUS
  5
2E3
 66
     1
 10
0.0
 20
0.0
 30
0.0
 40
0.01
 41
0.01
  0
VERTEX
  8
31
  5
2E4
 10
14997.51
 20
49405.81
 30
0.0
  0
VERTEX
  8
31
  5
2E5
 10
14979.51
 20
49405.94
 30
0.0
  0
SEQEND
  8
0
  5
2E6
  0
POLYLINE
  8
31
  6
CONTINUOUS
  5
2E7
 66
     1
 10
0.0
 20
0.0
 30
0.0
 40
0.01
 41
0.01
  0
VERTEX
  8
31
  5
2E8
 10
14979.51
 20
49405.94
 30
0.0
  0
VERTEX
  8
31
  5
2E9
 10
14961.51
 20
49406.07
 30
0.0
  0
SEQEND
  8
0
  5
2EA
  0
POLYLINE
  8
31
  6
CONTINUOUS
  5
2EB
 66
     1
 10
0.0
 20
0.0
 30
0.0
 40
0.01
 41
0.01
  0
VERTEX
  8
31
  5
2EC
 10
14961.51
 20
49406.07
 30
0.0
  0
VERTEX
  8
31
  5
2ED
 10
14943.51
 20
49406.2
 30
0.0
  0
SEQEND
  8
0
  5
2EE
  0
POLYLINE
  8
31
  6
CONTINUOUS
  5
2EF
 66
     1
 10
0.0
 20
0.0
 30
0.0
 40
0.01
 41
0.01
  0
VERTEX
  8
31
  5
2F0
 10
14943.51
 20
49406.2
 30
0.0
  0
VERTEX
  8
31
  5
2F1
 10
14925.52
 20
49406.33
 30
0.0
  0
SEQEND
  8
0
  5
2F2
  0
POLYLINE
  8
31
  6
CONTINUOUS
  5
2F3
 66
     1
 10
0.0
 20
0.0
 30
0.0
 40
0.01
 41
0.01
  0
VERTEX
  8
31
  5
2F4
 10
14925.52
 20
49406.33
 30
0.0
  0
VERTEX
  8
31
  5
2F5
 10
14925.25
 20
49369.66
 30
0.0
  0
SEQEND
  8
0
  5
2F6
  0
POLYLINE
  8
31
  6
CONTINUOUS
  5
2F7
 66
     1
 10
0.0
 20
0.0
 30
0.0
 40
0.01
 41
0.01
  0
VERTEX
  8
31
  5
2F8
 10
14925.25
 20
49369.66
 30
0.0
  0
VERTEX
  8
31
  5
2F9
 10
14924.99
 20
49332.99
 30
0.0
  0
SEQEND
  8
0
  5
2FA
  0
POLYLINE
  8
31
  6
CONTINUOUS
  5
2FB
 66
     1
 10
0.0
 20
0.0
 30
0.0
 40
0.01
 41
0.01
  0
VERTEX
  8
31
  5
2FC
 10
14924.99
 20
49332.99
 30
0.0
  0
VERTEX
  8
31
  5
2FD
 10
14942.99
 20
49332.86
 30
0.0
  0
SEQEND
  8
0
  5
2FE
  0
POLYLINE
  8
31
  6
CONTINUOUS
  5
2FF
 66
     1
 10
0.0
 20
0.0
 30
0.0
 40
0.01
 41
0.01
  0
VERTEX
  8
31
  5
300
 10
14942.99
 20
49332.86
 30
0.0
  0
VERTEX
  8
31
  5
301
 10
14960.99
 20
49332.73
 30
0.0
  0
SEQEND
  8
0
  5
302
  0
POLYLINE
  8
31
  6
CONTINUOUS
  5
303
 66
     1
 10
0.0
 20
0.0
 30
0.0
 40
0.01
 41
0.01
  0
VERTEX
  8
31
  5
304
 10
14960.99
 20
49332.73
 30
0.0
  0
VERTEX
  8
31
  5
305
 10
14978.99
 20
49332.6
 30
0.0
  0
SEQEND
  8
0
  5
306
  0
POLYLINE
  8
31
  6
CONTINUOUS
  5
307
 66
     1
 10
0.0
 20
0.0
 30
0.0
 40
0.01
 41
0.01
  0
VERTEX
  8
31
  5
308
 10
14978.99
 20
49332.6
 30
0.0
  0
VERTEX
  8
31
  5
309
 10
14996.99
 20
49332.47
 30
0.0
  0
SEQEND
  8
0
  5
30A
  0
POLYLINE
  8
31
  6
CONTINUOUS
  5
30B
 66
     1
 10
0.0
 20
0.0
 30
0.0
 40
0.01
 41
0.01
  0
VERTEX
  8
31
  5
30C
 10
14996.99
 20
49332.47
 30
0.0
  0
VERTEX
  8
31
  5
30D
 10
15014.25
 20
49332.35
 30
0.0
  0
SEQEND
  8
0
  5
30E
  0
POLYLINE
  8
31
  6
CONTINUOUS
  5
30F
 66
     1
 10
0.0
 20
0.0
 30
0.0
 40
0.01
 41
0.01
  0
VERTEX
  8
31
  5
310
 10
15014.13
 20
49315.85
 30
0.0
  0
VERTEX
  8
31
  5
311
 10
14991.73
 20
49316.01
 30
0.0
  0
SEQEND
  8
0
  5
312
  0
POLYLINE
  8
31
  6
CONTINUOUS
  5
313
 66
     1
 10
0.0
 20
0.0
 30
0.0
 40
0.01
 41
0.01
  0
VERTEX
  8
31
  5
314
 10
14991.73
 20
49316.01
 30
0.0
  0
VERTEX
  8
31
  5
315
 10
14969.3
 20
49316.17
 30
0.0
  0
SEQEND
  8
0
  5
316
  0
POLYLINE
  8
31
  6
CONTINUOUS
  5
317
 66
     1
 10
0.0
 20
0.0
 30
0.0
 40
0.01
 41
0.01
  0
VERTEX
  8
31
  5
318
 10
14969.3
 20
49316.17
 30
0.0
  0
VERTEX
  8
31
  5
319
 10
14946.59
 20
49316.34
 30
0.0
  0
SEQEND
  8
0
  5
31A
  0
POLYLINE
  8
31
  6
CONTINUOUS
  5
31B
 66
     1
 10
0.0
 20
0.0
 30
0.0
 40
0.01
 41
0.01
  0
VERTEX
  8
31
  5
31C
 10
14946.59
 20
49316.34
 30
0.0
  0
VERTEX
  8
31
  5
31D
 10
14924.87
 20
49316.49
 30
0.0
  0
SEQEND
  8
0
  5
31E
  0
POLYLINE
  8
31
  6
CONTINUOUS
  5
31F
 66
     1
 10
0.0
 20
0.0
 30
0.0
 40
0.01
 41
0.01
  0
VERTEX
  8
31
  5
320
 10
14924.87
 20
49316.49
 30
0.0
  0
VERTEX
  8
31
  5
321
 10
14924.74
 20
49297.84
 30
0.0
  0
SEQEND
  8
0
  5
322
  0
POLYLINE
  8
31
  6
CONTINUOUS
  5
323
 66
     1
 10
0.0
 20
0.0
 30
0.0
 40
0.01
 41
0.01
  0
VERTEX
  8
31
  5
324
 10
14940.65
 20
49245.97
 30
0.0
  0
VERTEX
  8
31
  5
325
 10
14946.27
 20
49243.93
 30
0.0
  0
SEQEND
  8
0
  5
326
  0
POLYLINE
  8
31
  6
CONTINUOUS
  5
327
 66
     1
 10
0.0
 20
0.0
 30
0.0
 40
0.01
 41
0.01
  0
VERTEX
  8
31
  5
328
 10
14946.27
 20
49243.93
 30
0.0
  0
VERTEX
  8
31
  5
329
 10
14943.12
 20
49235.42
 30
0.0
  0
SEQEND
  8
0
  5
32A
  0
POLYLINE
  8
31
  6
CONTINUOUS
  5
32B
 66
     1
 10
0.0
 20
0.0
 30
0.0
 40
0.01
 41
0.01
  0
VERTEX
  8
31
  5
32C
 10
14969.39
 20
49225.71
 30
0.0
  0
VERTEX
  8
31
  5
32D
 10
14972.53
 20
49234.21
 30
0.0
  0
SEQEND
  8
0
  5
32E
  0
POLYLINE
  8
31
  6
CONTINUOUS
  5
32F
 66
     1
 10
0.0
 20
0.0
 30
0.0
 40
0.01
 41
0.01
  0
VERTEX
  8
31
  5
330
 10
14972.53
 20
49234.21
 30
0.0
  0
VERTEX
  8
31
  5
331
 10
14974.4
 20
49233.52
 30
0.0
  0
SEQEND
  8
0
  5
332
  0
POLYLINE
  8
31
  6
CONTINUOUS
  5
333
 66
     1
 10
0.0
 20
0.0
 30
0.0
 40
0.01
 41
0.01
  0
VERTEX
  8
31
  5
334
 10
14947.59
 20
49264.76
 30
0.0
  0
VERTEX
  8
31
  5
335
 10
14948.53
 20
49264.42
 30
0.0
  0
SEQEND
  8
0
  5
336
  0
POLYLINE
  8
31
  6
CONTINUOUS
  5
337
 66
     1
 10
0.0
 20
0.0
 30
0.0
 40
0.01
 41
0.01
  0
VERTEX
  8
31
  5
338
 10
14948.53
 20
49264.42
 30
0.0
  0
VERTEX
  8
31
  5
339
 10
14976.08
 20
49254.23
 30
0.0
  0
SEQEND
  8
0
  5
33A
  0
POLYLINE
  8
31
  6
CONTINUOUS
  5
33B
 66
     1
 10
0.0
 20
0.0
 30
0.0
 40
0.01
 41
0.01
  0
VERTEX
  8
31
  5
33C
 10
14976.08
 20
49254.23
 30
0.0
  0
VERTEX
  8
31
  5
33D
 10
14981.33
 20
49252.28
 30
0.0
  0
SEQEND
  8
0
  5
33E
  0
POLYLINE
  8
31
  6
CONTINUOUS
  5
33F
 66
     1
 10
0.0
 20
0.0
 30
0.0
 40
0.01
 41
0.01
  0
VERTEX
  8
31
  5
340
 10
15007.09
 20
49236.08
 30
0.0
  0
VERTEX
  8
31
  5
341
 10
15010.83
 20
49239.18
 30
0.0
  0
SEQEND
  8
0
  5
342
  0
POLYLINE
  8
31
  6
CONTINUOUS
  5
343
 66
     1
 10
0.0
 20
0.0
 30
0.0
 40
0.01
 41
0.01
  0
VERTEX
  8
31
  5
344
 10
15021.35
 20
49226.46
 30
0.0
  0
VERTEX
  8
31
  5
345
 10
15017.61
 20
49223.37
 30
0.0
  0
SEQEND
  8
0
  5
346
  0
POLYLINE
  8
31
  6
CONTINUOUS
  5
347
 66
     1
 10
0.0
 20
0.0
 30
0.0
 40
0.01
 41
0.01
  0
VERTEX
  8
31
  5
348
 10
14913.95
 20
49188.1
 30
0.0
  0
VERTEX
  8
31
  5
349
 10
14939.28
 20
49188.38
 30
0.0
  0
SEQEND
  8
0
  5
34A
  0
POLYLINE
  8
31
  6
CONTINUOUS
  5
34B
 66
     1
 10
0.0
 20
0.0
 30
0.0
 40
0.01
 41
0.01
  0
VERTEX
  8
31
  5
34C
 10
14939.28
 20
49188.38
 30
0.0
  0
VERTEX
  8
31
  5
34D
 10
14975.78
 20
49188.77
 30
0.0
  0
SEQEND
  8
0
  5
34E
  0
POLYLINE
  8
31
  6
CONTINUOUS
  5
34F
 66
     1
 10
0.0
 20
0.0
 30
0.0
 40
0.01
 41
0.01
  0
VERTEX
  8
31
  5
350
 10
14975.78
 20
49188.77
 30
0.0
  0
VERTEX
  8
31
  5
351
 10
15004.28
 20
49189.09
 30
0.0
  0
SEQEND
  8
0
  5
352
  0
POLYLINE
  8
31
  6
CONTINUOUS
  5
353
 66
     1
 10
0.0
 20
0.0
 30
0.0
 40
0.01
 41
0.01
  0
VERTEX
  8
31
  5
354
 10
15004.28
 20
49189.09
 30
0.0
  0
VERTEX
  8
31
  5
355
 10
15009.1
 20
49190.64
 30
0.0
  0
SEQEND
  8
0
  5
356
  0
POLYLINE
  8
31
  6
CONTINUOUS
  5
357
 66
     1
 10
0.0
 20
0.0
 30
0.0
 40
0.01
 41
0.01
  0
VERTEX
  8
31
  5
358
 10
15009.66
 20
49181.65
 30
0.0
  0
VERTEX
  8
31
  5
359
 10
15004.34
 20
49183.09
 30
0.0
  0
SEQEND
  8
0
  5
35A
  0
POLYLINE
  8
31
  6
CONTINUOUS
  5
35B
 66
     1
 10
0.0
 20
0.0
 30
0.0
 40
0.01
 41
0.01
  0
VERTEX
  8
31
  5
35C
 10
15004.34
 20
49183.09
 30
0.0
  0
VERTEX
  8
31
  5
35D
 10
14973.65
 20
49182.75
 30
0.0
  0
SEQEND
  8
0
  5
35E
  0
POLYLINE
  8
31
  6
CONTINUOUS
  5
35F
 66
     1
 10
0.0
 20
0.0
 30
0.0
 40
0.01
 41
0.01
  0
VERTEX
  8
31
  5
360
 10
14973.65
 20
49182.75
 30
0.0
  0
VERTEX
  8
31
  5
361
 10
14955.86
 20
49182.56
 30
0.0
  0
SEQEND
  8
0
  5
362
  0
POLYLINE
  8
31
  6
CONTINUOUS
  5
363
 66
     1
 10
0.0
 20
0.0
 30
0.0
 40
0.01
 41
0.01
  0
VERTEX
  8
31
  5
364
 10
14955.86
 20
49182.56
 30
0.0
  0
VERTEX
  8
31
  5
365
 10
14938.07
 20
49182.36
 30
0.0
  0
SEQEND
  8
0
  5
366
  0
POLYLINE
  8
31
  6
CONTINUOUS
  5
367
 66
     1
 10
0.0
 20
0.0
 30
0.0
 40
0.01
 41
0.01
  0
VERTEX
  8
31
  5
368
 10
14938.07
 20
49182.36
 30
0.0
  0
VERTEX
  8
31
  5
369
 10
14926.48
 20
49182.23
 30
0.0
  0
SEQEND
  8
0
  5
36A
  0
POLYLINE
  8
31
  6
CONTINUOUS
  5
36B
 66
     1
 10
0.0
 20
0.0
 30
0.0
 40
0.01
 41
0.01
  0
VERTEX
  8
31
  5
36C
 10
14919.86
 20
49175.58
 30
0.0
  0
VERTEX
  8
31
  5
36D
 10
14919.65
 20
49147.06
 30
0.0
  0
SEQEND
  8
0
  5
36E
  0
POLYLINE
  8
31
  6
CONTINUOUS
  5
36F
 66
     1
 10
0.0
 20
0.0
 30
0.0
 40
0.01
 41
0.01
  0
VERTEX
  8
31
  5
370
 10
14937.76
 20
49145.26
 30
0.0
  0
VERTEX
  8
31
  5
371
 10
14955.55
 20
49145.46
 30
0.0
  0
SEQEND
  8
0
  5
372
  0
POLYLINE
  8
31
  6
CONTINUOUS
  5
373
 66
     1
 10
0.0
 20
0.0
 30
0.0
 40
0.01
 41
0.01
  0
VERTEX
  8
31
  5
374
 10
14955.55
 20
49145.46
 30
0.0
  0
VERTEX
  8
31
  5
375
 10
14973.35
 20
49145.65
 30
0.0
  0
SEQEND
  8
0
  5
376
  0
POLYLINE
  8
31
  6
CONTINUOUS
  5
377
 66
     1
 10
0.0
 20
0.0
 30
0.0
 40
0.01
 41
0.01
  0
VERTEX
  8
31
  5
378
 10
14973.35
 20
49145.65
 30
0.0
  0
VERTEX
  8
31
  5
379
 10
15009.36
 20
49146.05
 30
0.0
  0
SEQEND
  8
0
  5
37A
  0
POLYLINE
  8
31
  6
CONTINUOUS
  5
37B
 66
     1
 10
0.0
 20
0.0
 30
0.0
 40
0.01
 41
0.01
  0
VERTEX
  8
31
  5
37C
 10
15009.36
 20
49146.05
 30
0.0
  0
VERTEX
  8
31
  5
37D
 10
15009.51
 20
49164.54
 30
0.0
  0
SEQEND
  8
0
  5
37E
  0
POLYLINE
  8
31
  6
CONTINUOUS
  5
37F
 66
     1
 10
0.0
 20
0.0
 30
0.0
 40
0.01
 41
0.01
  0
VERTEX
  8
31
  5
380
 10
15009.51
 20
49164.54
 30
0.0
  0
VERTEX
  8
31
  5
381
 10
15009.66
 20
49181.65
 30
0.0
  0
SEQEND
  8
0
  5
382
  0
POLYLINE
  8
31
  6
CONTINUOUS
  5
383
 66
     1
 10
0.0
 20
0.0
 30
0.0
 40
0.01
 41
0.01
  0
VERTEX
  8
31
  5
384
 10
15029.66
 20
49182.26
 30
0.0
  0
VERTEX
  8
31
  5
385
 10
15029.51
 20
49164.27
 30
0.0
  0
SEQEND
  8
0
  5
386
  0
POLYLINE
  8
31
  6
CONTINUOUS
  5
387
 66
     1
 10
0.0
 20
0.0
 30
0.0
 40
0.01
 41
0.01
  0
VERTEX
  8
31
  5
388
 10
15029.51
 20
49164.27
 30
0.0
  0
VERTEX
  8
31
  5
389
 10
15029.36
 20
49146.27
 30
0.0
  0
SEQEND
  8
0
  5
38A
  0
POLYLINE
  8
31
  6
CONTINUOUS
  5
38B
 66
     1
 10
0.0
 20
0.0
 30
0.0
 40
0.01
 41
0.01
  0
VERTEX
  8
31
  5
38C
 10
15029.36
 20
49146.27
 30
0.0
  0
VERTEX
  8
31
  5
38D
 10
15066.04
 20
49146.67
 30
0.0
  0
SEQEND
  8
0
  5
38E
  0
POLYLINE
  8
31
  6
CONTINUOUS
  5
38F
 66
     1
 10
0.0
 20
0.0
 30
0.0
 40
0.01
 41
0.01
  0
VERTEX
  8
31
  5
390
 10
15066.04
 20
49146.67
 30
0.0
  0
VERTEX
  8
31
  5
391
 10
15066.02
 20
49144.84
 30
0.0
  0
SEQEND
  8
0
  5
392
  0
POLYLINE
  8
31
  6
CONTINUOUS
  5
393
 66
     1
 10
0.0
 20
0.0
 30
0.0
 40
0.01
 41
0.01
  0
VERTEX
  8
31
  5
394
 10
14913.65
 20
49146.94
 30
0.0
  0
VERTEX
  8
31
  5
395
 10
14913.95
 20
49188.1
 30
0.0
  0
SEQEND
  8
0
  5
396
  0
POLYLINE
  8
31
  6
CONTINUOUS
  5
397
 66
     1
 10
0.0
 20
0.0
 30
0.0
 40
0.01
 41
0.01
  0
VERTEX
  8
31
  5
398
 10
15022.03
 20
49507.72
 30
0.0
  0
VERTEX
  8
31
  5
399
 10
15022.33
 20
49543.53
 30
0.0
  0
SEQEND
  8
0
  5
39A
  0
POLYLINE
  8
31
  6
CONTINUOUS
  5
39B
 66
     1
 10
0.0
 20
0.0
 30
0.0
 40
0.01
 41
0.01
  0
VERTEX
  8
31
  5
39C
 10
15022.33
 20
49543.53
 30
0.0
  0
VERTEX
  8
31
  5
39D
 10
15069.33
 20
49544.01
 30
0.0
  0
SEQEND
  8
0
  5
39E
  0
POLYLINE
  8
31
  6
CONTINUOUS
  5
39F
 66
     1
 10
0.0
 20
0.0
 30
0.0
 40
0.01
 41
0.01
  0
VERTEX
  8
31
  5
3A0
 10
15069.33
 20
49544.01
 30
0.0
  0
VERTEX
  8
31
  5
3A1
 10
15068.98
 20
49502.4
 30
0.0
  0
SEQEND
  8
0
  5
3A2
  0
POLYLINE
  8
31
  6
CONTINUOUS
  5
3A3
 66
     1
 10
0.0
 20
0.0
 30
0.0
 40
0.01
 41
0.01
  0
VERTEX
  8
31
  5
3A4
 10
15068.98
 20
49502.4
 30
0.0
  0
VERTEX
  8
31
  5
3A5
 10
15068.85
 20
49485.9
 30
0.0
  0
SEQEND
  8
0
  5
3A6
  0
POLYLINE
  8
31
  6
CONTINUOUS
  5
3A7
 66
     1
 10
0.0
 20
0.0
 30
0.0
 40
0.01
 41
0.01
  0
VERTEX
  8
31
  5
3A8
 10
15068.85
 20
49485.9
 30
0.0
  0
VERTEX
  8
31
  5
3A9
 10
15068.62
 20
49458.47
 30
0.0
  0
SEQEND
  8
0
  5
3AA
  0
POLYLINE
  8
31
  6
CONTINUOUS
  5
3AB
 66
     1
 10
0.0
 20
0.0
 30
0.0
 40
0.01
 41
0.01
  0
VERTEX
  8
31
  5
3AC
 10
15068.62
 20
49458.47
 30
0.0
  0
VERTEX
  8
31
  5
3AD
 10
15068.54
 20
49448.2
 30
0.0
  0
SEQEND
  8
0
  5
3AE
  0
POLYLINE
  8
31
  6
CONTINUOUS
  5
3AF
 66
     1
 10
0.0
 20
0.0
 30
0.0
 40
0.01
 41
0.01
  0
VERTEX
  8
31
  5
3B0
 10
15068.54
 20
49448.2
 30
0.0
  0
VERTEX
  8
31
  5
3B1
 10
15068.25
 20
49413.55
 30
0.0
  0
SEQEND
  8
0
  5
3B2
  0
POLYLINE
  8
31
  6
CONTINUOUS
  5
3B3
 66
     1
 10
0.0
 20
0.0
 30
0.0
 40
0.01
 41
0.01
  0
VERTEX
  8
31
  5
3B4
 10
15068.25
 20
49413.55
 30
0.0
  0
VERTEX
  8
31
  5
3B5
 10
15067.96
 20
49378.9
 30
0.0
  0
SEQEND
  8
0
  5
3B6
  0
POLYLINE
  8
31
  6
CONTINUOUS
  5
3B7
 66
     1
 10
0.0
 20
0.0
 30
0.0
 40
0.01
 41
0.01
  0
VERTEX
  8
31
  5
3B8
 10
15067.96
 20
49378.9
 30
0.0
  0
VERTEX
  8
31
  5
3B9
 10
15067.88
 20
49368.63
 30
0.0
  0
SEQEND
  8
0
  5
3BA
  0
POLYLINE
  8
31
  6
CONTINUOUS
  5
3BB
 66
     1
 10
0.0
 20
0.0
 30
0.0
 40
0.01
 41
0.01
  0
VERTEX
  8
31
  5
3BC
 10
15067.88
 20
49368.63
 30
0.0
  0
VERTEX
  8
31
  5
3BD
 10
15067.79
 20
49358.36
 30
0.0
  0
SEQEND
  8
0
  5
3BE
  0
POLYLINE
  8
31
  6
CONTINUOUS
  5
3BF
 66
     1
 10
0.0
 20
0.0
 30
0.0
 40
0.01
 41
0.01
  0
VERTEX
  8
31
  5
3C0
 10
15067.79
 20
49358.36
 30
0.0
  0
VERTEX
  8
31
  5
3C1
 10
15067.5
 20
49323.72
 30
0.0
  0
SEQEND
  8
0
  5
3C2
  0
POLYLINE
  8
31
  6
CONTINUOUS
  5
3C3
 66
     1
 10
0.0
 20
0.0
 30
0.0
 40
0.01
 41
0.01
  0
VERTEX
  8
31
  5
3C4
 10
15067.5
 20
49323.72
 30
0.0
  0
VERTEX
  8
31
  5
3C5
 10
15067.22
 20
49289.07
 30
0.0
  0
SEQEND
  8
0
  5
3C6
  0
POLYLINE
  8
31
  6
CONTINUOUS
  5
3C7
 66
     1
 10
0.0
 20
0.0
 30
0.0
 40
0.01
 41
0.01
  0
VERTEX
  8
31
  5
3C8
 10
15067.22
 20
49289.07
 30
0.0
  0
VERTEX
  8
31
  5
3C9
 10
15067.16
 20
49281.72
 30
0.0
  0
SEQEND
  8
0
  5
3CA
  0
POLYLINE
  8
31
  6
CONTINUOUS
  5
3CB
 66
     1
 10
0.0
 20
0.0
 30
0.0
 40
0.01
 41
0.01
  0
VERTEX
  8
31
  5
3CC
 10
15067.16
 20
49281.72
 30
0.0
  0
VERTEX
  8
31
  5
3CD
 10
15067.01
 20
49264.36
 30
0.0
  0
SEQEND
  8
0
  5
3CE
  0
POLYLINE
  8
31
  6
CONTINUOUS
  5
3CF
 66
     1
 10
0.0
 20
0.0
 30
0.0
 40
0.01
 41
0.01
  0
VERTEX
  8
31
  5
3D0
 10
15067.01
 20
49264.36
 30
0.0
  0
VERTEX
  8
31
  5
3D1
 10
15066.72
 20
49229.27
 30
0.0
  0
SEQEND
  8
0
  5
3D2
  0
POLYLINE
  8
31
  6
CONTINUOUS
  5
3D3
 66
     1
 10
0.0
 20
0.0
 30
0.0
 40
0.01
 41
0.01
  0
VERTEX
  8
31
  5
3D4
 10
15066.72
 20
49229.27
 30
0.0
  0
VERTEX
  8
31
  5
3D5
 10
15066.51
 20
49203.27
 30
0.0
  0
SEQEND
  8
0
  5
3D6
  0
POLYLINE
  8
31
  6
CONTINUOUS
  5
3D7
 66
     1
 10
0.0
 20
0.0
 30
0.0
 40
0.01
 41
0.01
  0
VERTEX
  8
31
  5
3D8
 10
15066.51
 20
49203.27
 30
0.0
  0
VERTEX
  8
31
  5
3D9
 10
15066.36
 20
49186.14
 30
0.0
  0
SEQEND
  8
0
  5
3DA
  0
POLYLINE
  8
31
  6
CONTINUOUS
  5
3DB
 66
     1
 10
0.0
 20
0.0
 30
0.0
 40
0.01
 41
0.01
  0
VERTEX
  8
31
  6
CONTINUOUS
  5
3DC
 10
15005.6
 20
49516.22
 30
0.0
 42
0.23
  0
VERTEX
  8
31
  6
CONTINUOUS
  5
3DD
 10
14996.32
 20
49508.58
 30
0.0
 42
0.23
  0
SEQEND
  8
0
  5
3DE
  0
POLYLINE
  8
31
  6
CONTINUOUS
  5
3DF
 66
     1
 10
0.0
 20
0.0
 30
0.0
 40
0.01
 41
0.01
  0
VERTEX
  8
31
  6
CONTINUOUS
  5
3E0
 10
14996.32
 20
49508.58
 30
0.0
 42
0.21
  0
VERTEX
  8
31
  6
CONTINUOUS
  5
3E1
 10
14996.14
 20
49497.08
 30
0.0
 42
0.21
  0
SEQEND
  8
0
  5
3E2
  0
POLYLINE
  8
31
  6
CONTINUOUS
  5
3E3
 66
     1
 10
0.0
 20
0.0
 30
0.0
 40
0.01
 41
0.01
  0
VERTEX
  8
31
  6
CONTINUOUS
  5
3E4
 10
14996.14
 20
49497.08
 30
0.0
 42
0.16
  0
VERTEX
  8
31
  6
CONTINUOUS
  5
3E5
 10
15001.79
 20
49490.63
 30
0.0
 42
0.16
  0
SEQEND
  8
0
  5
3E6
  0
POLYLINE
  8
31
  6
CONTINUOUS
  5
3E7
 66
     1
 10
0.0
 20
0.0
 30
0.0
 40
0.01
 41
0.01
  0
VERTEX
  8
31
  6
CONTINUOUS
  5
3E8
 10
15001.79
 20
49490.63
 30
0.0
 42
0.16
  0
VERTEX
  8
31
  6
CONTINUOUS
  5
3E9
 10
15010.13
 20
49488.68
 30
0.0
 42
0.16
  0
SEQEND
  8
0
  5
3EA
  0
POLYLINE
  8
31
  6
CONTINUOUS
  5
3EB
 66
     1
 10
0.0
 20
0.0
 30
0.0
 40
0.01
 41
0.01
  0
VERTEX
  8
31
  6
CONTINUOUS
  5
3EC
 10
15010.13
 20
49488.68
 30
0.0
 42
0.16
  0
VERTEX
  8
31
  6
CONTINUOUS
  5
3ED
 10
15018.27
 20
49492.15
 30
0.0
 42
0.16
  0
SEQEND
  8
0
  5
3EE
  0
POLYLINE
  8
31
  6
CONTINUOUS
  5
3EF
 66
     1
 10
0.0
 20
0.0
 30
0.0
 40
0.01
 41
0.01
  0
VERTEX
  8
31
  6
CONTINUOUS
  5
3F0
 10
15018.27
 20
49492.15
 30
0.0
 42
0.11
  0
VERTEX
  8
31
  6
CONTINUOUS
  5
3F1
 10
15021.82
 20
49497.03
 30
0.0
 42
0.11
  0
SEQEND
  8
0
  5
3F2
  0
POLYLINE
  8
31
  6
CONTINUOUS
  5
3F3
 66
     1
 10
0.0
 20
0.0
 30
0.0
 40
0.01
 41
0.01
  0
VERTEX
  8
31
  6
CONTINUOUS
  5
3F4
 10
15021.82
 20
49497.03
 30
0.0
 42
0.1
  0
VERTEX
  8
31
  6
CONTINUOUS
  5
3F5
 10
15022.99
 20
49502.52
 30
0.0
 42
0.1
  0
SEQEND
  8
0
  5
3F6
  0
POLYLINE
  8
31
  6
CONTINUOUS
  5
3F7
 66
     1
 10
0.0
 20
0.0
 30
0.0
 40
0.01
 41
0.01
  0
VERTEX
  8
31
  6
CONTINUOUS
  5
3F8
 10
15022.99
 20
49502.52
 30
0.0
 42
0.1
  0
VERTEX
  8
31
  6
CONTINUOUS
  5
3F9
 10
15022.03
 20
49507.72
 30
0.0
 42
0.1
  0
SEQEND
  8
0
  5
3FA
  0
POLYLINE
  8
31
  6
CONTINUOUS
  5
3FB
 66
     1
 10
0.0
 20
0.0
 30
0.0
 40
0.01
 41
0.01
  0
VERTEX
  8
31
  6
CONTINUOUS
  5
3FC
 10
15014.88
 20
49405.69
 30
0.0
 42
0.29
  0
VERTEX
  8
31
  6
CONTINUOUS
  5
3FD
 10
15028.96
 20
49400.12
 30
0.0
 42
0.29
  0
SEQEND
  8
0
  5
3FE
  0
POLYLINE
  8
31
  6
CONTINUOUS
  5
3FF
 66
     1
 10
0.0
 20
0.0
 30
0.0
 40
0.01
 41
0.01
  0
VERTEX
  8
31
  6
CONTINUOUS
  5
400
 10
15028.96
 20
49400.12
 30
0.0
 42
0.17
  0
VERTEX
  8
31
  6
CONTINUOUS
  5
401
 10
15036.98
 20
49404.86
 30
0.0
 42
0.17
  0
SEQEND
  8
0
  5
402
  0
POLYLINE
  8
31
  6
CONTINUOUS
  5
403
 66
     1
 10
0.0
 20
0.0
 30
0.0
 40
0.01
 41
0.01
  0
VERTEX
  8
31
  6
CONTINUOUS
  5
404
 10
15036.98
 20
49404.86
 30
0.0
 42
0.17
  0
VERTEX
  8
31
  6
CONTINUOUS
  5
405
 10
15040.25
 20
49413.75
 30
0.0
 42
0.17
  0
SEQEND
  8
0
  5
406
  0
POLYLINE
  8
31
  6
CONTINUOUS
  5
407
 66
     1
 10
0.0
 20
0.0
 30
0.0
 40
0.01
 41
0.01
  0
VERTEX
  8
31
  6
CONTINUOUS
  5
408
 10
15040.25
 20
49413.75
 30
0.0
 42
0.17
  0
VERTEX
  8
31
  6
CONTINUOUS
  5
409
 10
15037.12
 20
49422.68
 30
0.0
 42
0.17
  0
SEQEND
  8
0
  5
40A
  0
POLYLINE
  8
31
  6
CONTINUOUS
  5
40B
 66
     1
 10
0.0
 20
0.0
 30
0.0
 40
0.01
 41
0.01
  0
VERTEX
  8
31
  6
CONTINUOUS
  5
40C
 10
15037.12
 20
49422.68
 30
0.0
 42
0.17
  0
VERTEX
  8
31
  6
CONTINUOUS
  5
40D
 10
15029.16
 20
49427.55
 30
0.0
 42
0.17
  0
SEQEND
  8
0
  5
40E
  0
POLYLINE
  8
31
  6
CONTINUOUS
  5
40F
 66
     1
 10
0.0
 20
0.0
 30
0.0
 40
0.01
 41
0.01
  0
VERTEX
  8
31
  6
CONTINUOUS
  5
410
 10
15029.16
 20
49427.55
 30
0.0
 42
0.29
  0
VERTEX
  8
31
  6
CONTINUOUS
  5
411
 10
15015.0
 20
49422.19
 30
0.0
 42
0.29
  0
SEQEND
  8
0
  5
412
  0
POLYLINE
  8
31
  6
CONTINUOUS
  5
413
 66
     1
 10
0.0
 20
0.0
 30
0.0
 40
0.01
 41
0.01
  0
VERTEX
  8
31
  6
CONTINUOUS
  5
414
 10
14924.74
 20
49297.84
 30
0.0
 42
0.1
  0
VERTEX
  8
31
  6
CONTINUOUS
  5
415
 10
14927.26
 20
49284.54
 30
0.0
 42
0.1
  0
SEQEND
  8
0
  5
416
  0
POLYLINE
  8
31
  6
CONTINUOUS
  5
417
 66
     1
 10
0.0
 20
0.0
 30
0.0
 40
0.01
 41
0.01
  0
VERTEX
  8
31
  6
CONTINUOUS
  5
418
 10
14927.26
 20
49284.54
 30
0.0
 42
0.21
  0
VERTEX
  8
31
  6
CONTINUOUS
  5
419
 10
14947.59
 20
49264.76
 30
0.0
 42
0.21
  0
SEQEND
  8
0
  5
41A
  0
POLYLINE
  8
31
  6
CONTINUOUS
  5
41B
 66
     1
 10
0.0
 20
0.0
 30
0.0
 40
0.01
 41
0.01
  0
VERTEX
  8
31
  6
CONTINUOUS
  5
41C
 10
14943.12
 20
49235.42
 30
0.0
 42
0.1
  0
VERTEX
  8
31
  6
CONTINUOUS
  5
41D
 10
14942.26
 20
49230.15
 30
0.0
 42
0.1
  0
SEQEND
  8
0
  5
41E
  0
POLYLINE
  8
31
  6
CONTINUOUS
  5
41F
 66
     1
 10
0.0
 20
0.0
 30
0.0
 40
0.01
 41
0.01
  0
VERTEX
  8
31
  6
CONTINUOUS
  5
420
 10
14942.26
 20
49230.15
 30
0.0
 42
0.14
  0
VERTEX
  8
31
  6
CONTINUOUS
  5
421
 10
14944.54
 20
49222.9
 30
0.0
 42
0.14
  0
SEQEND
  8
0
  5
422
  0
POLYLINE
  8
31
  6
CONTINUOUS
  5
423
 66
     1
 10
0.0
 20
0.0
 30
0.0
 40
0.01
 41
0.01
  0
VERTEX
  8
31
  6
CONTINUOUS
  5
424
 10
14944.54
 20
49222.9
 30
0.0
 42
0.18
  0
VERTEX
  8
31
  6
CONTINUOUS
  5
425
 10
14952.42
 20
49217.1
 30
0.0
 42
0.18
  0
SEQEND
  8
0
  5
426
  0
POLYLINE
  8
31
  6
CONTINUOUS
  5
427
 66
     1
 10
0.0
 20
0.0
 30
0.0
 40
0.01
 41
0.01
  0
VERTEX
  8
31
  6
CONTINUOUS
  5
428
 10
14952.42
 20
49217.1
 30
0.0
 42
0.18
  0
VERTEX
  8
31
  6
CONTINUOUS
  5
429
 10
14962.18
 20
49217.88
 30
0.0
 42
0.18
  0
SEQEND
  8
0
  5
42A
  0
POLYLINE
  8
31
  6
CONTINUOUS
  5
42B
 66
     1
 10
0.0
 20
0.0
 30
0.0
 40
0.01
 41
0.01
  0
VERTEX
  8
31
  6
CONTINUOUS
  5
42C
 10
14962.18
 20
49217.88
 30
0.0
 42
0.2
  0
VERTEX
  8
31
  6
CONTINUOUS
  5
42D
 10
14969.39
 20
49225.71
 30
0.0
 42
0.2
  0
SEQEND
  8
0
  5
42E
  0
POLYLINE
  8
31
  6
CONTINUOUS
  5
42F
 66
     1
 10
0.0
 20
0.0
 30
0.0
 40
0.01
 41
0.01
  0
VERTEX
  8
31
  6
CONTINUOUS
  5
430
 10
15009.1
 20
49190.64
 30
0.0
 42
0.12
  0
VERTEX
  8
31
  6
CONTINUOUS
  5
431
 10
14999.88
 20
49213.87
 30
0.0
 42
0.12
  0
SEQEND
  8
0
  5
432
  0
POLYLINE
  8
31
  6
CONTINUOUS
  5
433
 66
     1
 10
0.0
 20
0.0
 30
0.0
 40
0.01
 41
0.01
  0
VERTEX
  8
31
  6
CONTINUOUS
  5
434
 10
15029.66
 20
49182.26
 30
0.0
 42
0.05
  0
VERTEX
  8
31
  6
CONTINUOUS
  5
435
 10
15028.27
 20
49197.17
 30
0.0
 42
0.05
  0
SEQEND
  8
0
  5
436
  0
POLYLINE
  8
31
  6
CONTINUOUS
  5
437
 66
     1
 10
0.0
 20
0.0
 30
0.0
 40
0.01
 41
0.01
  0
VERTEX
  8
31
  6
CONTINUOUS
  5
438
 10
15028.27
 20
49197.17
 30
0.0
 42
0.1
  0
VERTEX
  8
31
  6
CONTINUOUS
  5
439
 10
15017.61
 20
49223.37
 30
0.0
 42
0.1
  0
SEQEND
  8
0
  5
43A
  0
POLYLINE
  8
31
  6
CONTINUOUS
  5
43B
 66
     1
 10
0.0
 20
0.0
 30
0.0
 40
0.01
 41
0.01
  0
VERTEX
  8
31
  6
CONTINUOUS
  5
43C
 10
15007.09
 20
49236.08
 30
0.0
 42
0.06
  0
VERTEX
  8
31
  6
CONTINUOUS
  5
43D
 10
14992.46
 20
49247.08
 30
0.0
 42
0.06
  0
SEQEND
  8
0
  5
43E
  0
POLYLINE
  8
31
  6
CONTINUOUS
  5
43F
 66
     1
 10
0.0
 20
0.0
 30
0.0
 40
0.01
 41
0.01
  0
VERTEX
  8
31
  6
CONTINUOUS
  5
440
 10
14992.46
 20
49247.08
 30
0.0
 42
0.04
  0
VERTEX
  8
31
  6
CONTINUOUS
  5
441
 10
14981.33
 20
49252.28
 30
0.0
 42
0.04
  0
SEQEND
  8
0
  5
442
  0
POLYLINE
  8
31
  6
CONTINUOUS
  5
443
 66
     1
 10
0.0
 20
0.0
 30
0.0
 40
0.01
 41
0.01
  0
VERTEX
  8
31
  6
CONTINUOUS
  5
444
 10
15021.35
 20
49226.46
 30
0.0
 42
0.24
  0
VERTEX
  8
31
  6
CONTINUOUS
  5
445
 10
15033.75
 20
49229.25
 30
0.0
 42
0.24
  0
SEQEND
  8
0
  5
446
  0
POLYLINE
  8
31
  6
CONTINUOUS
  5
447
 66
     1
 10
0.0
 20
0.0
 30
0.0
 40
0.01
 41
0.01
  0
VERTEX
  8
31
  6
CONTINUOUS
  5
448
 10
15033.75
 20
49229.25
 30
0.0
 42
0.16
  0
VERTEX
  8
31
  6
CONTINUOUS
  5
449
 10
15038.37
 20
49236.54
 30
0.0
 42
0.16
  0
SEQEND
  8
0
  5
44A
  0
POLYLINE
  8
31
  6
CONTINUOUS
  5
44B
 66
     1
 10
0.0
 20
0.0
 30
0.0
 40
0.01
 41
0.01
  0
VERTEX
  8
31
  6
CONTINUOUS
  5
44C
 10
15038.37
 20
49236.54
 30
0.0
 42
0.2
  0
VERTEX
  8
31
  6
CONTINUOUS
  5
44D
 10
15036.94
 20
49247.02
 30
0.0
 42
0.2
  0
SEQEND
  8
0
  5
44E
  0
POLYLINE
  8
31
  6
CONTINUOUS
  5
44F
 66
     1
 10
0.0
 20
0.0
 30
0.0
 40
0.01
 41
0.01
  0
VERTEX
  8
31
  6
CONTINUOUS
  5
450
 10
15036.94
 20
49247.02
 30
0.0
 42
0.16
  0
VERTEX
  8
31
  6
CONTINUOUS
  5
451
 10
15030.32
 20
49252.89
 30
0.0
 42
0.16
  0
SEQEND
  8
0
  5
452
  0
POLYLINE
  8
31
  6
CONTINUOUS
  5
453
 66
     1
 10
0.0
 20
0.0
 30
0.0
 40
0.01
 41
0.01
  0
VERTEX
  8
31
  6
CONTINUOUS
  5
454
 10
15030.32
 20
49252.89
 30
0.0
 42
0.18
  0
VERTEX
  8
31
  6
CONTINUOUS
  5
455
 10
15020.35
 20
49253.29
 30
0.0
 42
0.18
  0
SEQEND
  8
0
  5
456
  0
POLYLINE
  8
31
  6
CONTINUOUS
  5
457
 66
     1
 10
0.0
 20
0.0
 30
0.0
 40
0.01
 41
0.01
  0
VERTEX
  8
31
  6
CONTINUOUS
  5
458
 10
15020.35
 20
49253.29
 30
0.0
 42
0.34
  0
VERTEX
  8
31
  6
CONTINUOUS
  5
459
 10
15010.83
 20
49239.18
 30
0.0
 42
0.34
  0
SEQEND
  8
0
  5
45A
  0
POLYLINE
  8
31
  6
CONTINUOUS
  5
45B
 66
     1
 10
0.0
 20
0.0
 30
0.0
 40
0.01
 41
0.01
  0
VERTEX
  8
31
  6
CONTINUOUS
  5
45C
 10
15014.13
 20
49315.85
 30
0.0
 42
0.28
  0
VERTEX
  8
31
  6
CONTINUOUS
  5
45D
 10
15027.72
 20
49310.2
 30
0.0
 42
0.28
  0
SEQEND
  8
0
  5
45E
  0
POLYLINE
  8
31
  6
CONTINUOUS
  5
45F
 66
     1
 10
0.0
 20
0.0
 30
0.0
 40
0.01
 41
0.01
  0
VERTEX
  8
31
  6
CONTINUOUS
  5
460
 10
15027.72
 20
49310.2
 30
0.0
 42
0.18
  0
VERTEX
  8
31
  6
CONTINUOUS
  5
461
 10
15036.24
 20
49315.03
 30
0.0
 42
0.18
  0
SEQEND
  8
0
  5
462
  0
POLYLINE
  8
31
  6
CONTINUOUS
  5
463
 66
     1
 10
0.0
 20
0.0
 30
0.0
 40
0.01
 41
0.01
  0
VERTEX
  8
31
  6
CONTINUOUS
  5
464
 10
15036.24
 20
49315.03
 30
0.0
 42
0.17
  0
VERTEX
  8
31
  6
CONTINUOUS
  5
465
 10
15039.5
 20
49323.92
 30
0.0
 42
0.17
  0
SEQEND
  8
0
  5
466
  0
POLYLINE
  8
31
  6
CONTINUOUS
  5
467
 66
     1
 10
0.0
 20
0.0
 30
0.0
 40
0.01
 41
0.01
  0
VERTEX
  8
31
  6
CONTINUOUS
  5
468
 10
15039.5
 20
49323.92
 30
0.0
 42
0.17
  0
VERTEX
  8
31
  6
CONTINUOUS
  5
469
 10
15036.37
 20
49332.85
 30
0.0
 42
0.17
  0
SEQEND
  8
0
  5
46A
  0
POLYLINE
  8
31
  6
CONTINUOUS
  5
46B
 66
     1
 10
0.0
 20
0.0
 30
0.0
 40
0.01
 41
0.01
  0
VERTEX
  8
31
  6
CONTINUOUS
  5
46C
 10
15036.37
 20
49332.85
 30
0.0
 42
0.17
  0
VERTEX
  8
31
  6
CONTINUOUS
  5
46D
 10
15028.42
 20
49337.71
 30
0.0
 42
0.17
  0
SEQEND
  8
0
  5
46E
  0
POLYLINE
  8
31
  6
CONTINUOUS
  5
46F
 66
     1
 10
0.0
 20
0.0
 30
0.0
 40
0.01
 41
0.01
  0
VERTEX
  8
31
  6
CONTINUOUS
  5
470
 10
15028.42
 20
49337.71
 30
0.0
 42
0.29
  0
VERTEX
  8
31
  6
CONTINUOUS
  5
471
 10
15014.25
 20
49332.35
 30
0.0
 42
0.29
  0
SEQEND
  8
0
  5
472
  0
POLYLINE
  8
31
  6
CONTINUOUS
  5
473
 66
     1
 10
0.0
 20
0.0
 30
0.0
 40
0.01
 41
0.01
  0
VERTEX
  8
31
  6
CONTINUOUS
  5
474
 10
14926.48
 20
49182.23
 30
0.0
 42
0.41
  0
VERTEX
  8
31
  6
CONTINUOUS
  5
475
 10
14919.86
 20
49175.58
 30
0.0
 42
0.41
  0
SEQEND
  8
0
  5
476
  0
LINE
  8
32
  6
CONTINUOUS
  5
477
 10
14926.25
 20
49509.08
 30
0.0
 11
14946.76
 21
49508.93
 31
0.0
  0
LINE
  8
32
  6
CONTINUOUS
  5
478
 10
14946.76
 20
49508.93
 30
0.0
 11
14966.19
 21
49508.79
 31
0.0
  0
LINE
  8
32
  6
CONTINUOUS
  5
479
 10
14966.19
 20
49508.79
 30
0.0
 11
14985.42
 21
49508.65
 31
0.0
  0
LINE
  8
32
  6
CONTINUOUS
  5
47A
 10
14985.42
 20
49508.65
 30
0.0
 11
14996.32
 21
49508.58
 31
0.0
  0
LINE
  8
32
  6
CONTINUOUS
  5
47B
 10
14996.14
 20
49497.08
 30
0.0
 11
14965.95
 21
49475.74
 31
0.0
  0
LINE
  8
32
  6
CONTINUOUS
  5
47C
 10
14925.9
 20
49459.5
 30
0.0
 11
14943.9
 21
49459.37
 31
0.0
  0
LINE
  8
32
  6
CONTINUOUS
  5
47D
 10
14946.41
 20
49542.74
 30
0.0
 11
14946.76
 21
49508.93
 31
0.0
  0
LINE
  8
32
  6
CONTINUOUS
  5
47E
 10
14965.83
 20
49542.94
 30
0.0
 11
14966.19
 21
49508.79
 31
0.0
  0
LINE
  8
32
  6
CONTINUOUS
  5
47F
 10
14966.19
 20
49508.79
 30
0.0
 11
14966.07
 21
49492.27
 31
0.0
  0
LINE
  8
32
  6
CONTINUOUS
  5
480
 10
14966.07
 20
49492.27
 30
0.0
 11
14965.95
 21
49475.74
 31
0.0
  0
LINE
  8
32
  6
CONTINUOUS
  5
481
 10
14965.95
 20
49475.74
 30
0.0
 11
14965.83
 21
49459.21
 31
0.0
  0
LINE
  8
32
  6
CONTINUOUS
  5
482
 10
14965.83
 20
49459.21
 30
0.0
 11
14961.9
 21
49459.24
 31
0.0
  0
LINE
  8
32
  6
CONTINUOUS
  5
483
 10
14961.9
 20
49459.24
 30
0.0
 11
14943.9
 21
49459.37
 31
0.0
  0
LINE
  8
32
  6
CONTINUOUS
  5
484
 10
14965.83
 20
49459.21
 30
0.0
 11
14979.9
 21
49459.11
 31
0.0
  0
LINE
  8
32
  6
CONTINUOUS
  5
485
 10
14979.9
 20
49459.11
 30
0.0
 11
14984.33
 21
49459.08
 31
0.0
  0
LINE
  8
32
  6
CONTINUOUS
  5
486
 10
14984.33
 20
49459.08
 30
0.0
 11
14997.89
 21
49458.98
 31
0.0
  0
LINE
  8
32
  6
CONTINUOUS
  5
487
 10
14997.89
 20
49458.98
 30
0.0
 11
15016.74
 21
49458.84
 31
0.0
  0
LINE
  8
32
  6
CONTINUOUS
  5
488
 10
15016.74
 20
49458.84
 30
0.0
 11
15018.92
 21
49458.83
 31
0.0
  0
LINE
  8
32
  6
CONTINUOUS
  5
489
 10
15018.92
 20
49458.83
 30
0.0
 11
15044.24
 21
49458.65
 31
0.0
  0
LINE
  8
32
  6
CONTINUOUS
  5
48A
 10
15044.24
 20
49458.65
 30
0.0
 11
15068.62
 21
49458.47
 31
0.0
  0
LINE
  8
32
  6
CONTINUOUS
  5
48B
 10
15022.99
 20
49502.52
 30
0.0
 11
15068.98
 21
49502.4
 31
0.0
  0
LINE
  8
32
  6
CONTINUOUS
  5
48C
 10
15068.85
 20
49485.9
 30
0.0
 11
15033.58
 21
49486.19
 31
0.0
  0
LINE
  8
32
  6
CONTINUOUS
  5
48D
 10
15033.58
 20
49486.19
 30
0.0
 11
15021.82
 21
49497.03
 31
0.0
  0
LINE
  8
32
  6
CONTINUOUS
  5
48E
 10
15018.92
 20
49458.83
 30
0.0
 11
15010.13
 21
49488.68
 31
0.0
  0
LINE
  8
32
  6
CONTINUOUS
  5
48F
 10
15001.79
 20
49490.63
 30
0.0
 11
14984.33
 21
49459.08
 31
0.0
  0
LINE
  8
32
  6
CONTINUOUS
  5
490
 10
14943.9
 20
49459.37
 30
0.0
 11
14943.63
 21
49422.7
 31
0.0
  0
LINE
  8
32
  6
CONTINUOUS
  5
491
 10
14961.63
 20
49422.57
 30
0.0
 11
14961.9
 21
49459.24
 31
0.0
  0
LINE
  8
32
  6
CONTINUOUS
  5
492
 10
14979.9
 20
49459.11
 30
0.0
 11
14979.63
 21
49422.44
 31
0.0
  0
LINE
  8
32
  6
CONTINUOUS
  5
493
 10
14997.63
 20
49422.31
 30
0.0
 11
14997.89
 21
49458.98
 31
0.0
  0
LINE
  8
32
  6
CONTINUOUS
  5
494
 10
15015.0
 20
49422.19
 30
0.0
 11
15016.74
 21
49458.84
 31
0.0
  0
LINE
  8
32
  6
CONTINUOUS
  5
495
 10
15044.24
 20
49458.65
 30
0.0
 11
15029.16
 21
49427.55
 31
0.0
  0
LINE
  8
32
  6
CONTINUOUS
  5
496
 10
15068.54
 20
49448.2
 30
0.0
 11
15037.12
 21
49422.68
 31
0.0
  0
LINE
  8
32
  6
CONTINUOUS
  5
497
 10
15068.25
 20
49413.55
 30
0.0
 11
15040.25
 21
49413.75
 31
0.0
  0
LINE
  8
32
  6
CONTINUOUS
  5
498
 10
15036.98
 20
49404.86
 30
0.0
 11
15067.96
 21
49378.9
 31
0.0
  0
LINE
  8
32
  6
CONTINUOUS
  5
499
 10
15043.5
 20
49368.81
 30
0.0
 11
15028.96
 21
49400.12
 31
0.0
  0
LINE
  8
32
  6
CONTINUOUS
  5
49A
 10
15016.0
 20
49369.01
 30
0.0
 11
15014.88
 21
49405.69
 31
0.0
  0
LINE
  8
32
  6
CONTINUOUS
  5
49B
 10
14997.51
 20
49405.81
 30
0.0
 11
14997.25
 21
49369.14
 31
0.0
  0
LINE
  8
32
  6
CONTINUOUS
  5
49C
 10
14979.25
 20
49369.27
 30
0.0
 11
14979.51
 21
49405.94
 31
0.0
  0
LINE
  8
32
  6
CONTINUOUS
  5
49D
 10
14961.51
 20
49406.07
 30
0.0
 11
14961.25
 21
49369.4
 31
0.0
  0
LINE
  8
32
  6
CONTINUOUS
  5
49E
 10
14943.25
 20
49369.53
 30
0.0
 11
14943.51
 21
49406.2
 31
0.0
  0
LINE
  8
32
  6
CONTINUOUS
  5
49F
 10
14943.25
 20
49369.53
 30
0.0
 11
14942.99
 21
49332.86
 31
0.0
  0
LINE
  8
32
  6
CONTINUOUS
  5
4A0
 10
14960.99
 20
49332.73
 30
0.0
 11
14961.25
 21
49369.4
 31
0.0
  0
LINE
  8
32
  6
CONTINUOUS
  5
4A1
 10
14979.25
 20
49369.27
 30
0.0
 11
14978.99
 21
49332.6
 31
0.0
  0
LINE
  8
32
  6
CONTINUOUS
  5
4A2
 10
14996.99
 20
49332.47
 30
0.0
 11
14997.25
 21
49369.14
 31
0.0
  0
LINE
  8
32
  6
CONTINUOUS
  5
4A3
 10
15014.25
 20
49332.35
 30
0.0
 11
15016.0
 21
49369.01
 31
0.0
  0
LINE
  8
32
  6
CONTINUOUS
  5
4A4
 10
15016.0
 20
49369.01
 30
0.0
 11
15043.5
 21
49368.81
 31
0.0
  0
LINE
  8
32
  6
CONTINUOUS
  5
4A5
 10
15043.5
 20
49368.81
 30
0.0
 11
15028.42
 21
49337.71
 31
0.0
  0
LINE
  8
32
  6
CONTINUOUS
  5
4A6
 10
15036.37
 20
49332.85
 30
0.0
 11
15067.79
 21
49358.36
 31
0.0
  0
LINE
  8
32
  6
CONTINUOUS
  5
4A7
 10
15067.88
 20
49368.63
 30
0.0
 11
15043.5
 21
49368.81
 31
0.0
  0
LINE
  8
32
  6
CONTINUOUS
  5
4A8
 10
15016.0
 20
49369.01
 30
0.0
 11
14997.25
 21
49369.14
 31
0.0
  0
LINE
  8
32
  6
CONTINUOUS
  5
4A9
 10
14997.25
 20
49369.14
 30
0.0
 11
14979.25
 21
49369.27
 31
0.0
  0
LINE
  8
32
  6
CONTINUOUS
  5
4AA
 10
14979.25
 20
49369.27
 30
0.0
 11
14961.25
 21
49369.4
 31
0.0
  0
LINE
  8
32
  6
CONTINUOUS
  5
4AB
 10
14961.25
 20
49369.4
 30
0.0
 11
14943.25
 21
49369.53
 31
0.0
  0
LINE
  8
32
  6
CONTINUOUS
  5
4AC
 10
14943.25
 20
49369.53
 30
0.0
 11
14925.25
 21
49369.66
 31
0.0
  0
LINE
  8
32
  6
CONTINUOUS
  5
4AD
 10
14927.26
 20
49284.54
 30
0.0
 11
14946.37
 21
49286.2
 31
0.0
  0
LINE
  8
32
  6
CONTINUOUS
  5
4AE
 10
14946.37
 20
49286.2
 30
0.0
 11
14969.09
 21
49288.17
 31
0.0
  0
LINE
  8
32
  6
CONTINUOUS
  5
4AF
 10
14969.09
 20
49288.17
 30
0.0
 11
14980.05
 21
49286.7
 31
0.0
  0
LINE
  8
32
  6
CONTINUOUS
  5
4B0
 10
14980.05
 20
49286.7
 30
0.0
 11
14991.5
 21
49285.17
 31
0.0
  0
LINE
  8
32
  6
CONTINUOUS
  5
4B1
 10
14991.5
 20
49285.17
 30
0.0
 11
14991.94
 21
49285.11
 31
0.0
  0
LINE
  8
32
  6
CONTINUOUS
  5
4B2
 10
14991.94
 20
49285.11
 30
0.0
 11
15010.71
 21
49282.59
 31
0.0
  0
LINE
  8
32
  6
CONTINUOUS
  5
4B3
 10
15010.71
 20
49282.59
 30
0.0
 11
15014.39
 21
49282.1
 31
0.0
  0
LINE
  8
32
  6
CONTINUOUS
  5
4B4
 10
15014.39
 20
49282.1
 30
0.0
 11
15042.16
 21
49281.9
 31
0.0
  0
LINE
  8
32
  6
CONTINUOUS
  5
4B5
 10
15042.16
 20
49281.9
 30
0.0
 11
15050.41
 21
49281.84
 31
0.0
  0
LINE
  8
32
  6
CONTINUOUS
  5
4B6
 10
15050.41
 20
49281.84
 30
0.0
 11
15067.16
 21
49281.72
 31
0.0
  0
LINE
  8
32
  6
CONTINUOUS
  5
4B7
 10
15039.5
 20
49323.92
 30
0.0
 11
15067.5
 21
49323.72
 31
0.0
  0
LINE
  8
32
  6
CONTINUOUS
  5
4B8
 10
15067.22
 20
49289.07
 30
0.0
 11
15036.24
 21
49315.03
 31
0.0
  0
LINE
  8
32
  6
CONTINUOUS
  5
4B9
 10
15027.72
 20
49310.2
 30
0.0
 11
15042.16
 21
49281.9
 31
0.0
  0
LINE
  8
32
  6
CONTINUOUS
  5
4BA
 10
15014.13
 20
49315.85
 30
0.0
 11
15010.71
 21
49282.59
 31
0.0
  0
LINE
  8
32
  6
CONTINUOUS
  5
4BB
 10
14991.5
 20
49285.17
 30
0.0
 11
14991.73
 21
49316.01
 31
0.0
  0
LINE
  8
32
  6
CONTINUOUS
  5
4BC
 10
14991.94
 20
49285.11
 30
0.0
 11
14976.08
 21
49254.23
 31
0.0
  0
LINE
  8
32
  6
CONTINUOUS
  5
4BD
 10
14946.59
 20
49316.34
 30
0.0
 11
14946.37
 21
49286.2
 31
0.0
  0
LINE
  8
32
  6
CONTINUOUS
  5
4BE
 10
14969.09
 20
49288.17
 30
0.0
 11
14969.3
 21
49316.17
 31
0.0
  0
LINE
  8
32
  6
CONTINUOUS
  5
4BF
 10
14980.05
 20
49286.7
 30
0.0
 11
14948.53
 21
49264.42
 31
0.0
  0
LINE
  8
32
  6
CONTINUOUS
  5
4C0
 10
15010.71
 20
49282.59
 30
0.0
 11
14992.46
 21
49247.08
 31
0.0
  0
LINE
  8
32
  6
CONTINUOUS
  5
4C1
 10
15014.39
 20
49282.1
 30
0.0
 11
15020.35
 21
49253.29
 31
0.0
  0
LINE
  8
32
  6
CONTINUOUS
  5
4C2
 10
15050.41
 20
49281.84
 30
0.0
 11
15030.32
 21
49252.89
 31
0.0
  0
LINE
  8
32
  6
CONTINUOUS
  5
4C3
 10
15036.94
 20
49247.02
 30
0.0
 11
15067.01
 21
49264.36
 31
0.0
  0
LINE
  8
32
  6
CONTINUOUS
  5
4C4
 10
15066.72
 20
49229.27
 30
0.0
 11
15038.37
 21
49236.54
 31
0.0
  0
LINE
  8
32
  6
CONTINUOUS
  5
4C5
 10
15033.75
 20
49229.25
 30
0.0
 11
15056.63
 21
49201.69
 31
0.0
  0
LINE
  8
32
  6
CONTINUOUS
  5
4C6
 10
15028.27
 20
49197.17
 30
0.0
 11
15056.63
 21
49201.69
 31
0.0
  0
LINE
  8
32
  6
CONTINUOUS
  5
4C7
 10
15056.63
 20
49201.69
 30
0.0
 11
15066.51
 21
49203.27
 31
0.0
  0
LINE
  8
32
  6
CONTINUOUS
  5
4C8
 10
15066.36
 20
49186.14
 30
0.0
 11
15066.33
 21
49182.67
 31
0.0
  0
LINE
  8
32
  6
CONTINUOUS
  5
4C9
 10
15066.19
 20
49164.67
 30
0.0
 11
15066.04
 21
49146.67
 31
0.0
  0
LINE
  8
32
  6
CONTINUOUS
  5
4CA
 10
15029.66
 20
49182.26
 30
0.0
 11
15066.33
 21
49182.67
 31
0.0
  0
LINE
  8
32
  6
CONTINUOUS
  5
4CB
 10
15066.19
 20
49164.67
 30
0.0
 11
15029.51
 21
49164.27
 31
0.0
  0
LINE
  8
32
  6
CONTINUOUS
  5
4CC
 10
15066.33
 20
49182.67
 30
0.0
 11
15066.19
 21
49164.95
 31
0.0
  0
LINE
  8
32
  6
CONTINUOUS
  5
4CD
 10
15066.19
 20
49164.95
 30
0.0
 11
15066.19
 21
49164.67
 31
0.0
  0
LINE
  8
32
  6
CONTINUOUS
  5
4CE
 10
14913.99
 20
49193.3
 30
0.0
 11
14913.95
 21
49188.1
 31
0.0
  0
LINE
  8
32
  6
CONTINUOUS
  5
4CF
 10
14914.25
 20
49230.35
 30
0.0
 11
14942.26
 21
49230.15
 31
0.0
  0
LINE
  8
32
  6
CONTINUOUS
  5
4D0
 10
14944.54
 20
49222.9
 30
0.0
 11
14913.99
 21
49193.3
 31
0.0
  0
LINE
  8
32
  6
CONTINUOUS
  5
4D1
 10
14952.42
 20
49217.1
 30
0.0
 11
14939.28
 21
49188.38
 31
0.0
  0
LINE
  8
32
  6
CONTINUOUS
  5
4D2
 10
14962.18
 20
49217.88
 30
0.0
 11
14970.07
 21
49201.01
 31
0.0
  0
LINE
  8
32
  6
CONTINUOUS
  5
4D3
 10
14970.07
 20
49201.01
 30
0.0
 11
14975.78
 21
49188.77
 31
0.0
  0
LINE
  8
32
  6
CONTINUOUS
  5
4D4
 10
14970.07
 20
49201.01
 30
0.0
 11
14999.88
 21
49213.87
 31
0.0
  0
LINE
  8
32
  6
CONTINUOUS
  5
4D5
 10
14938.07
 20
49182.36
 30
0.0
 11
14937.76
 21
49145.26
 31
0.0
  0
LINE
  8
32
  6
CONTINUOUS
  5
4D6
 10
14955.86
 20
49182.56
 30
0.0
 11
14955.55
 21
49145.46
 31
0.0
  0
LINE
  8
32
  6
CONTINUOUS
  5
4D7
 10
14973.35
 20
49145.65
 30
0.0
 11
14973.5
 21
49164.15
 31
0.0
  0
LINE
  8
32
  6
CONTINUOUS
  5
4D8
 10
14973.5
 20
49164.15
 30
0.0
 11
14973.65
 21
49182.75
 31
0.0
  0
LINE
  8
32
  6
CONTINUOUS
  5
4D9
 10
15009.51
 20
49164.54
 30
0.0
 11
14973.5
 21
49164.15
 31
0.0
  0
POLYLINE
  8
31
  6
CONTINUOUS
  5
4DA
 66
     1
 10
0.0
 20
0.0
 30
0.0
 40
0.01
 41
0.01
  0
VERTEX
  8
31
  6
CONTINUOUS
  5
4DB
 10
14999.88
 20
49213.87
 30
0.0
 42
0.15
  0
VERTEX
  8
31
  6
CONTINUOUS
  5
4DC
 10
14974.4
 20
49233.52
 30
0.0
 42
0.15
  0
SEQEND
  8
0
  5
4DD
  0
LINE
  8
32
  6
CONTINUOUS
  5
4DE
 10
14926.13
 20
49492.55
 30
0.0
 11
14966.07
 21
49492.27
 31
0.0
  0
LINE
  8
32
  6
CONTINUOUS
  5
4DF
 10
14926.02
 20
49476.03
 30
0.0
 11
14965.95
 21
49475.74
 31
0.0
  0
LINE
  8
32
  6
CONTINUOUS
  5
4E0
 10
14985.06
 20
49543.14
 30
0.0
 11
14985.42
 21
49508.65
 31
0.0
  0
LINE
  8
32
  6
CONTINUOUS
  5
4E1
 10
14914.48
 20
49266.27
 30
0.0
 11
14914.3
 21
49241.77
 31
0.0
  0
LINE
  8
32
  6
CONTINUOUS
  5
4E2
 10
14914.3
 20
49241.77
 30
0.0
 11
14914.25
 21
49230.35
 31
0.0
  0
LINE
  8
32
  6
CONTINUOUS
  5
4E3
 10
14886.31
 20
49241.43
 30
0.0
 11
14914.3
 21
49241.77
 31
0.0
  0
LINE
  8
32
  6
CONTINUOUS
  5
4E4
 10
14914.25
 20
49230.35
 30
0.0
 11
14913.99
 21
49193.3
 31
0.0
  0
TEXT
  8
42
  6
CONTINUOUS
  5
4E6
 10
14835.38
 20
49599.06
 30
0.0
 40
5.0
  1
 9826
 50
359.0
 41
0.8
  7
ITALICS
  0
TEXT
  8
42
  6
CONTINUOUS
  5
4E8
 10
14835.76
 20
49674.67
 30
0.0
 40
5.0
  1
  72
 50
359.0
 41
0.8
  7
ITALICS
  0
TEXT
  8
42
  6
CONTINUOUS
  5
4EA
 10
15159.3
 20
49579.94
 30
0.0
 40
5.0
  1
15355
 50
90.0
 41
0.8
  7
ITALICS
  0
TEXT
  8
42
  6
CONTINUOUS
  5
4F8
 10
14937.36
 20
49435.72
 30
0.0
 40
5.0
  1
(15239)
 50
89.0
 41
0.8
  7
ITALICS
  0
TEXT
  8
42
  6
CONTINUOUS
  5
4FA
 10
14955.36
 20
49435.59
 30
0.0
 40
5.0
  1
(    47)
 50
89.0
 41
0.8
  7
ITALICS
  0
TEXT
  8
42
  6
CONTINUOUS
  5
4FC
 10
14973.36
 20
49435.46
 30
0.0
 40
5.0
  1
(    55)
 50
89.0
 41
0.8
  7
ITALICS
  0
TEXT
  8
42
  6
CONTINUOUS
  5
4FE
 10
14991.36
 20
49435.33
 30
0.0
 40
5.0
  1
(    63)
 50
89.0
 41
0.8
  7
ITALICS
  0
TEXT
  8
42
  6
CONTINUOUS
  5
508
 10
14990.52
 20
49377.38
 30
0.0
 40
5.0
  1
  66
 50
89.0
 41
0.8
  7
ITALICS
 72
     2
 11
14988.29
 21
49392.85
 31
0.0
 73
     2
  0
TEXT
  8
42
  6
CONTINUOUS
  5
50B
 10
14954.52
 20
49377.64
 30
0.0
 40
5.0
  1
  50
 50
89.0
 41
0.8
  7
ITALICS
 72
     2
 11
14952.29
 21
49393.11
 31
0.0
 73
     2
  0
TEXT
  8
42
  6
CONTINUOUS
  5
50E
 10
14936.71
 20
49345.88
 30
0.0
 40
5.0
  1
15243
 50
89.0
 41
0.8
  7
ITALICS
  0
TEXT
  8
42
  6
CONTINUOUS
  5
510
 10
14954.71
 20
49345.75
 30
0.0
 40
5.0
  1
  51
 50
89.0
 41
0.8
  7
ITALICS
  0
TEXT
  8
42
  6
CONTINUOUS
  5
512
 10
14972.71
 20
49345.62
 30
0.0
 40
5.0
  1
  59
 50
89.0
 41
0.8
  7
ITALICS
  0
TEXT
  8
42
  6
CONTINUOUS
  5
515
 10
15008.35
 20
49345.37
 30
0.0
 40
5.0
  1
  75
 50
89.0
 41
0.8
  7
ITALICS
  0
TEXT
  8
42
  6
CONTINUOUS
  5
51F
 10
14959.98
 20
49291.21
 30
0.0
 40
5.0
  1
  52
 50
89.0
 41
0.8
  7
ITALICS
 72
     2
 11
14957.75
 21
49306.68
 31
0.0
 73
     2
  0
TEXT
  8
42
  6
CONTINUOUS
  5
522
 10
14832.52
 20
49191.01
 30
0.0
 40
5.0
  1
( 9612)
 50
359.0
 41
0.8
  7
ITALICS
  0
TEXT
  8
42
  6
CONTINUOUS
  5
526
 10
14971.25
 20
49153.69
 30
0.0
 40
5.0
  1
( 9617)
 50
358.74
 41
0.8
  7
ITALICS
 72
     2
 11
14996.44
 21
49155.64
 31
0.0
 73
     2
  0
TEXT
  8
42
  6
CONTINUOUS
  5
528
 10
14976.93
 20
49171.16
 30
0.0
 40
5.0
  1
 9625
 50
359.0
 41
0.8
  7
ITALICS
 72
     2
 11
14996.59
 21
49173.32
 31
0.0
 73
     2
  0
TEXT
  8
42
  6
CONTINUOUS
  5
52D
 10
14933.51
 20
49195.84
 30
0.0
 40
5.0
  1
  57
 50
54.0
 41
0.8
  7
ITALICS
 72
     2
 11
14940.67
 21
49209.95
 31
0.0
 73
     2
  0
TEXT
  8
42
  6
CONTINUOUS
  5
532
 10
15042.54
 20
49170.54
 30
0.0
 40
5.0
  1
(    22)
 50
359.0
 41
0.8
  7
ITALICS
  0
TEXT
  8
42
  6
CONTINUOUS
  5
539
 10
15043.65
 20
49256.16
 30
0.0
 40
5.0
  1
  95
 50
42.0
 41
0.8
  7
ITALICS
  0
TEXT
  8
42
  6
CONTINUOUS
  5
53D
 10
15030.83
 20
49216.32
 30
0.0
 40
5.0
  1
(15278)
 50
309.0
 41
0.8
  7
ITALICS
  0
TEXT
  8
42
  6
CONTINUOUS
  5
53F
 10
15233.66
 20
49580.48
 30
0.0
 40
5.0
  1
15401
 50
90.0
 41
0.8
  7
ITALICS
  0
TEXT
  8
42
  6
CONTINUOUS
  5
541
 10
15249.9
 20
49580.66
 30
0.0
 40
5.0
  1
  09
 50
90.0
 41
0.8
  7
ITALICS
  0
TEXT
  8
42
  6
CONTINUOUS
  5
543
 10
15265.14
 20
49580.82
 30
0.0
 40
5.0
  1
  17
 50
90.0
 41
0.8
  7
ITALICS
  0
TEXT
  8
42
  6
CONTINUOUS
  5
545
 10
15280.38
 20
49580.99
 30
0.0
 40
5.0
  1
  25
 50
90.0
 41
0.8
  7
ITALICS
  0
TEXT
  8
42
  6
CONTINUOUS
  5
547
 10
15295.61
 20
49581.15
 30
0.0
 40
5.0
  1
  33
 50
90.0
 41
0.8
  7
ITALICS
  0
TEXT
  8
42
  6
CONTINUOUS
  5
549
 10
15310.85
 20
49581.32
 30
0.0
 40
5.0
  1
(    41)
 50
90.0
 41
0.8
  7
ITALICS
  0
TEXT
  8
42
  6
CONTINUOUS
  5
54B
 10
15326.09
 20
49581.49
 30
0.0
 40
5.0
  1
  49
 50
90.0
 41
0.8
  7
ITALICS
  0
TEXT
  8
42
  6
CONTINUOUS
  5
54D
 10
15234.09
 20
49513.5
 30
0.0
 40
5.0
  1
15402
 50
90.0
 41
0.8
  7
ITALICS
 72
     2
 11
15231.59
 21
49532.93
 31
0.0
 73
     2
  0
TEXT
  8
42
  6
CONTINUOUS
  5
54F
 10
15251.51
 20
49503.42
 30
0.0
 40
5.0
  1
(    10)
 50
90.0
 41
0.8
  7
ITALICS
 72
     2
 11
15249.01
 21
49532.56
 31
0.0
 73
     2
  0
TEXT
  8
42
  6
CONTINUOUS
  5
551
 10
15267.94
 20
49517.27
 30
0.0
 40
5.0
  1
  18
 50
90.0
 41
0.8
  7
ITALICS
 72
     2
 11
15265.44
 21
49532.7
 31
0.0
 73
     2
  0
TEXT
  8
42
  6
CONTINUOUS
  5
553
 10
15284.37
 20
49517.45
 30
0.0
 40
5.0
  1
  26
 50
90.0
 41
0.8
  7
ITALICS
 72
     2
 11
15281.87
 21
49532.88
 31
0.0
 73
     2
  0
TEXT
  8
42
  6
CONTINUOUS
  5
555
 10
15300.79
 20
49517.63
 30
0.0
 40
5.0
  1
  34
 50
90.0
 41
0.8
  7
ITALICS
 72
     2
 11
15298.29
 21
49533.06
 31
0.0
 73
     2
  0
TEXT
  8
42
  6
CONTINUOUS
  5
557
 10
15317.22
 20
49517.84
 30
0.0
 40
5.0
  1
  42
 50
90.0
 41
0.8
  7
ITALICS
 72
     2
 11
15314.72
 21
49533.27
 31
0.0
 73
     2
  0
TEXT
  8
42
  6
CONTINUOUS
  5
559
 10
15232.46
 20
49253.25
 30
0.0
 40
5.0
  1
 9654
 50
359.0
 41
0.8
  7
ITALICS
  0
TEXT
  8
42
  6
CONTINUOUS
  5
55B
 10
15232.73
 20
49269.42
 30
0.0
 40
5.0
  1
  62
 50
359.0
 41
0.8
  7
ITALICS
  0
TEXT
  8
42
  6
CONTINUOUS
  5
55D
 10
15232.89
 20
49285.49
 30
0.0
 40
5.0
  1
  70
 50
359.0
 41
0.8
  7
ITALICS
  0
TEXT
  8
42
  6
CONTINUOUS
  5
55F
 10
15233.04
 20
49301.57
 30
0.0
 40
5.0
  1
  78
 50
359.0
 41
0.8
  7
ITALICS
  0
TEXT
  8
42
  6
CONTINUOUS
  5
561
 10
15233.19
 20
49317.64
 30
0.0
 40
5.0
  1
  86
 50
359.0
 41
0.8
  7
ITALICS
  0
TEXT
  8
42
  6
CONTINUOUS
  5
563
 10
15233.35
 20
49333.71
 30
0.0
 40
5.0
  1
 9694
 50
359.0
 41
0.8
  7
ITALICS
  0
TEXT
  8
42
  6
CONTINUOUS
  5
565
 10
15233.5
 20
49349.78
 30
0.0
 40
5.0
  1
 9702
 50
359.0
 41
0.8
  7
ITALICS
  0
TEXT
  8
42
  6
CONTINUOUS
  5
567
 10
15233.66
 20
49365.85
 30
0.0
 40
5.0
  1
  10
 50
359.0
 41
0.8
  7
ITALICS
  0
TEXT
  8
42
  6
CONTINUOUS
  5
569
 10
15233.81
 20
49381.92
 30
0.0
 40
5.0
  1
  18
 50
359.0
 41
0.8
  7
ITALICS
  0
TEXT
  8
42
  6
CONTINUOUS
  5
56B
 10
15233.96
 20
49397.99
 30
0.0
 40
5.0
  1
  26
 50
359.0
 41
0.8
  7
ITALICS
  0
TEXT
  8
42
  6
CONTINUOUS
  5
56D
 10
15234.29
 20
49432.38
 30
0.0
 40
5.0
  1
  42
 50
359.0
 41
0.8
  7
ITALICS
  0
TEXT
  8
42
  6
CONTINUOUS
  5
56F
 10
15234.46
 20
49450.08
 30
0.0
 40
5.0
  1
  50
 50
359.0
 41
0.8
  7
ITALICS
  0
TEXT
  8
42
  6
CONTINUOUS
  5
571
 10
15234.62
 20
49466.78
 30
0.0
 40
5.0
  1
  58
 50
359.0
 41
0.8
  7
ITALICS
  0
TEXT
  8
42
  6
CONTINUOUS
  5
573
 10
15234.78
 20
49483.48
 30
0.0
 40
5.0
  1
  66
 50
359.0
 41
0.8
  7
ITALICS
  0
TEXT
  8
42
  6
CONTINUOUS
  5
575
 10
15234.94
 20
49500.18
 30
0.0
 40
5.0
  1
 9774
 50
359.0
 41
0.8
  7
ITALICS
  0
TEXT
  8
42
  6
CONTINUOUS
  5
578
 10
15312.35
 20
49492.51
 30
0.0
 40
5.0
  1
  47
 50
90.0
 41
0.8
  7
ITALICS
  0
TEXT
  8
42
  6
CONTINUOUS
  5
57A
 10
15294.48
 20
49492.21
 30
0.0
 40
5.0
  1
(    43)
 50
110.0
 41
0.8
  7
ITALICS
  0
TEXT
  8
42
  6
CONTINUOUS
  5
57C
 10
15264.76
 20
49488.21
 30
0.0
 40
5.0
  1
  39
 50
320.0
 41
0.8
  7
ITALICS
 72
     2
 11
15278.19
 21
49480.21
 31
0.0
 73
     2
  0
TEXT
  8
42
  6
CONTINUOUS
  5
57E
 10
15246.52
 20
49456.55
 30
0.0
 40
5.0
  1
(    35)
 50
6.0
 41
0.8
  7
ITALICS
 72
     2
 11
15275.24
 21
49462.08
 31
0.0
 73
     2
  0
TEXT
  8
42
  6
CONTINUOUS
  5
580
 10
15270.55
 20
49432.04
 30
0.0
 40
5.0
  1
  38
 50
45.0
 41
0.8
  7
ITALICS
 72
     2
 11
15279.69
 21
49444.72
 31
0.0
 73
     2
  0
TEXT
  8
42
  6
CONTINUOUS
  5
582
 10
15293.97
 20
49421.89
 30
0.0
 40
5.0
  1
  44
 50
75.0
 41
0.8
  7
ITALICS
 72
     2
 11
15295.55
 21
49437.44
 31
0.0
 73
     2
  0
TEXT
  8
42
  6
CONTINUOUS
  5
584
 10
15317.06
 20
49417.13
 30
0.0
 40
5.0
  1
 9748
 50
93.75
 41
0.8
  7
ITALICS
 72
     2
 11
15313.29
 21
49436.35
 31
0.0
 73
     2
  0
TEXT
  8
42
  6
CONTINUOUS
  5
586
 10
15255.33
 20
49256.2
 30
0.0
 40
5.0
  1
15425
 50
359.0
 41
0.8
  7
ITALICS
 72
     2
 11
15274.99
 21
49258.36
 31
0.0
 73
     2
  0
TEXT
  8
42
  6
CONTINUOUS
  5
588
 10
15259.01
 20
49274.78
 30
0.0
 40
5.0
  1
  29
 50
359.0
 41
0.8
  7
ITALICS
 72
     2
 11
15274.48
 21
49277.01
 31
0.0
 73
     2
  0
TEXT
  8
42
  6
CONTINUOUS
  5
58A
 10
15259.22
 20
49293.53
 30
0.0
 40
5.0
  1
  33
 50
359.0
 41
0.8
  7
ITALICS
 72
     2
 11
15274.69
 21
49295.76
 31
0.0
 73
     2
  0
TEXT
  8
42
  6
CONTINUOUS
  5
58C
 10
15259.18
 20
49312.28
 30
0.0
 40
5.0
  1
  37
 50
359.0
 41
0.8
  7
ITALICS
 72
     2
 11
15274.84
 21
49314.51
 31
0.0
 73
     2
  0
TEXT
  8
42
  6
CONTINUOUS
  5
58E
 10
15260.31
 20
49331.02
 30
0.0
 40
5.0
  1
  41
 50
359.0
 41
0.8
  7
ITALICS
 72
     2
 11
15275.02
 21
49333.26
 31
0.0
 73
     2
  0
TEXT
  8
42
  6
CONTINUOUS
  5
590
 10
15259.57
 20
49349.78
 30
0.0
 40
5.0
  1
  45
 50
359.0
 41
0.8
  7
ITALICS
 72
     2
 11
15275.23
 21
49352.01
 31
0.0
 73
     2
  0
TEXT
  8
42
  6
CONTINUOUS
  5
592
 10
15260.88
 20
49372.16
 30
0.0
 40
5.0
  1
  49
 50
341.0
 41
0.8
  7
ITALICS
 72
     2
 11
15276.28
 21
49369.5
 31
0.0
 73
     2
  0
TEXT
  8
42
  6
CONTINUOUS
  5
594
 10
15277.89
 20
49394.39
 30
0.0
 40
5.0
  1
  53
 50
303.0
 41
0.8
  7
ITALICS
 72
     2
 11
15288.39
 21
49382.81
 31
0.0
 73
     2
  0
TEXT
  8
42
  6
CONTINUOUS
  5
596
 10
15305.49
 20
49387.0
 30
0.0
 40
5.0
  1
15457
 50
87.0
 41
0.8
  7
ITALICS
  0
TEXT
  8
42
  6
CONTINUOUS
  5
59B
 10
15313.38
 20
49321.58
 30
0.0
 40
5.0
  1
  40
 50
359.0
 41
0.8
  7
ITALICS
  0
TEXT
  8
42
  6
CONTINUOUS
  5
59D
 10
15313.25
 20
49303.49
 30
0.0
 40
5.0
  1
  36
 50
359.0
 41
0.8
  7
ITALICS
  0
TEXT
  8
42
  6
CONTINUOUS
  5
59F
 10
15313.07
 20
49285.5
 30
0.0
 40
5.0
  1
  32
 50
359.0
 41
0.8
  7
ITALICS
  0
TEXT
  8
42
  6
CONTINUOUS
  5
5A1
 10
15312.9
 20
49267.5
 30
0.0
 40
5.0
  1
  28
 50
359.0
 41
0.8
  7
ITALICS
  0
TEXT
  8
42
  6
CONTINUOUS
  5
5A3
 10
15240.62
 20
49161.82
 30
0.0
 40
5.0
  1
15413
 50
90.0
 41
0.8
  7
ITALICS
  0
TEXT
  8
42
  6
CONTINUOUS
  5
5A5
 10
15270.94
 20
49163.41
 30
0.0
 40
5.0
  1
  29
 50
90.0
 41
0.8
  7
ITALICS
  0
TEXT
  8
42
  6
CONTINUOUS
  5
5A7
 10
15292.42
 20
49162.3
 30
0.0
 40
5.0
  1
  39
 50
90.0
 41
0.8
  7
ITALICS
  0
TEXT
  8
42
  6
CONTINUOUS
  5
5A9
 10
15313.94
 20
49162.5
 30
0.0
 40
5.0
  1
  51
 50
90.0
 41
0.8
  7
ITALICS
  0
TEXT
  8
42
  6
CONTINUOUS
  5
5AB
 10
15226.44
 20
49215.43
 30
0.0
 40
5.0
  1
 9640
 50
359.0
 41
0.8
  7
ITALICS
  0
TEXT
  8
42
  6
CONTINUOUS
  5
5AD
 10
15252.07
 20
49204.06
 30
0.0
 40
5.0
  1
15402
 50
88.42
 41
0.8
  7
ITALICS
 72
     2
 11
15250.11
 21
49223.55
 31
0.0
 73
     2
  0
TEXT
  8
42
  6
CONTINUOUS
  5
5B1
 10
15046.84
 20
49313.27
 30
0.0
 40
5.0
  1
  92
 50
336.0
 41
0.8
  7
ITALICS
  0
TEXT
  8
42
  6
CONTINUOUS
  5
5B2
 10
15008.01
 20
49377.24
 30
0.0
 40
5.0
  1
  74
 50
88.74
 41
0.8
  7
ITALICS
 72
     2
 11
15005.85
 21
49392.72
 31
0.0
 73
     2
  0
POLYLINE
  8
31
  6
CONTINUOUS
  5
5B3
 66
     1
 10
0.0
 20
0.0
 30
0.0
 40
0.01
 41
0.01
  0
VERTEX
  8
31
  5
5B4
 10
15066.02
 20
49144.84
 30
0.0
  0
VERTEX
  8
31
  5
5B5
 10
15100.13
 20
49145.22
 30
0.0
  0
SEQEND
  8
0
  5
5B6
  0
POLYLINE
  8
31
  6
CONTINUOUS
  5
5B7
 66
     1
 10
0.0
 20
0.0
 30
0.0
 40
0.01
 41
0.01
  0
VERTEX
  8
31
  5
5B8
 10
15100.13
 20
49145.22
 30
0.0
  0
VERTEX
  8
31
  5
5B9
 10
15100.29
 20
49165.33
 30
0.0
  0
SEQEND
  8
0
  5
5BA
  0
POLYLINE
  8
31
  6
CONTINUOUS
  5
5BB
 66
     1
 10
0.0
 20
0.0
 30
0.0
 40
0.01
 41
0.01
  0
VERTEX
  8
31
  5
5BC
 10
15100.29
 20
49165.33
 30
0.0
  0
VERTEX
  8
31
  5
5BD
 10
15100.47
 20
49186.51
 30
0.0
  0
SEQEND
  8
0
  5
5BE
  0
POLYLINE
  8
31
  6
CONTINUOUS
  5
5BF
 66
     1
 10
0.0
 20
0.0
 30
0.0
 40
0.01
 41
0.01
  0
VERTEX
  8
31
  5
5C0
 10
15100.47
 20
49186.51
 30
0.0
  0
VERTEX
  8
31
  5
5C1
 10
15066.36
 20
49186.14
 30
0.0
  0
SEQEND
  8
0
  5
5C2
  0
POLYLINE
  8
31
  6
CONTINUOUS
  5
5C3
 66
     1
 10
0.0
 20
0.0
 30
0.0
 40
0.01
 41
0.01
  0
VERTEX
  8
31
  5
5C4
 10
15100.52
 20
49192.61
 30
0.0
  0
VERTEX
  8
31
  5
5C5
 10
15069.46
 20
49192.27
 30
0.0
  0
SEQEND
  8
0
  5
5C6
  0
POLYLINE
  8
31
  6
CONTINUOUS
  5
5C7
 66
     1
 10
0.0
 20
0.0
 30
0.0
 40
0.01
 41
0.01
  0
VERTEX
  8
31
  5
5C8
 10
15069.46
 20
49192.27
 30
0.0
  0
VERTEX
  8
31
  5
5C9
 10
15069.63
 20
49212.91
 30
0.0
  0
SEQEND
  8
0
  5
5CA
  0
POLYLINE
  8
31
  6
CONTINUOUS
  5
5CB
 66
     1
 10
0.0
 20
0.0
 30
0.0
 40
0.01
 41
0.01
  0
VERTEX
  8
31
  5
5CC
 10
15069.63
 20
49212.91
 30
0.0
  0
VERTEX
  8
31
  5
5CD
 10
15069.8
 20
49233.56
 30
0.0
  0
SEQEND
  8
0
  5
5CE
  0
POLYLINE
  8
31
  6
CONTINUOUS
  5
5CF
 66
     1
 10
0.0
 20
0.0
 30
0.0
 40
0.01
 41
0.01
  0
VERTEX
  8
31
  5
5D0
 10
15069.8
 20
49233.56
 30
0.0
  0
VERTEX
  8
31
  5
5D1
 10
15069.99
 20
49255.73
 30
0.0
  0
SEQEND
  8
0
  5
5D2
  0
POLYLINE
  8
31
  6
CONTINUOUS
  5
5D3
 66
     1
 10
0.0
 20
0.0
 30
0.0
 40
0.01
 41
0.01
  0
VERTEX
  8
31
  5
5D4
 10
15069.99
 20
49255.73
 30
0.0
  0
VERTEX
  8
31
  5
5D5
 10
15070.17
 20
49277.9
 30
0.0
  0
SEQEND
  8
0
  5
5D6
  0
POLYLINE
  8
31
  6
CONTINUOUS
  5
5D7
 66
     1
 10
0.0
 20
0.0
 30
0.0
 40
0.01
 41
0.01
  0
VERTEX
  8
31
  5
5D8
 10
15070.17
 20
49277.9
 30
0.0
  0
VERTEX
  8
31
  5
5D9
 10
15070.36
 20
49300.07
 30
0.0
  0
SEQEND
  8
0
  5
5DA
  0
POLYLINE
  8
31
  6
CONTINUOUS
  5
5DB
 66
     1
 10
0.0
 20
0.0
 30
0.0
 40
0.01
 41
0.01
  0
VERTEX
  8
31
  5
5DC
 10
15070.36
 20
49300.07
 30
0.0
  0
VERTEX
  8
31
  5
5DD
 10
15070.54
 20
49322.25
 30
0.0
  0
SEQEND
  8
0
  5
5DE
  0
POLYLINE
  8
31
  6
CONTINUOUS
  5
5DF
 66
     1
 10
0.0
 20
0.0
 30
0.0
 40
0.01
 41
0.01
  0
VERTEX
  8
31
  5
5E0
 10
15070.54
 20
49322.25
 30
0.0
  0
VERTEX
  8
31
  5
5E1
 10
15070.72
 20
49344.42
 30
0.0
  0
SEQEND
  8
0
  5
5E2
  0
POLYLINE
  8
31
  6
CONTINUOUS
  5
5E3
 66
     1
 10
0.0
 20
0.0
 30
0.0
 40
0.01
 41
0.01
  0
VERTEX
  8
31
  5
5E4
 10
15070.72
 20
49344.42
 30
0.0
  0
VERTEX
  8
31
  5
5E5
 10
15070.91
 20
49366.59
 30
0.0
  0
SEQEND
  8
0
  5
5E6
  0
POLYLINE
  8
31
  6
CONTINUOUS
  5
5E7
 66
     1
 10
0.0
 20
0.0
 30
0.0
 40
0.01
 41
0.01
  0
VERTEX
  8
31
  5
5E8
 10
15070.91
 20
49366.59
 30
0.0
  0
VERTEX
  8
31
  5
5E9
 10
15071.09
 20
49388.76
 30
0.0
  0
SEQEND
  8
0
  5
5EA
  0
POLYLINE
  8
31
  6
CONTINUOUS
  5
5EB
 66
     1
 10
0.0
 20
0.0
 30
0.0
 40
0.01
 41
0.01
  0
VERTEX
  8
31
  5
5EC
 10
15071.09
 20
49388.76
 30
0.0
  0
VERTEX
  8
31
  5
5ED
 10
15071.27
 20
49410.93
 30
0.0
  0
SEQEND
  8
0
  5
5EE
  0
POLYLINE
  8
31
  6
CONTINUOUS
  5
5EF
 66
     1
 10
0.0
 20
0.0
 30
0.0
 40
0.01
 41
0.01
  0
VERTEX
  8
31
  5
5F0
 10
15071.27
 20
49410.93
 30
0.0
  0
VERTEX
  8
31
  5
5F1
 10
15071.46
 20
49433.1
 30
0.0
  0
SEQEND
  8
0
  5
5F2
  0
POLYLINE
  8
31
  6
CONTINUOUS
  5
5F3
 66
     1
 10
0.0
 20
0.0
 30
0.0
 40
0.01
 41
0.01
  0
VERTEX
  8
31
  5
5F4
 10
15071.46
 20
49433.1
 30
0.0
  0
VERTEX
  8
31
  5
5F5
 10
15071.64
 20
49455.27
 30
0.0
  0
SEQEND
  8
0
  5
5F6
  0
POLYLINE
  8
31
  6
CONTINUOUS
  5
5F7
 66
     1
 10
0.0
 20
0.0
 30
0.0
 40
0.01
 41
0.01
  0
VERTEX
  8
31
  5
5F8
 10
15071.64
 20
49455.27
 30
0.0
  0
VERTEX
  8
31
  5
5F9
 10
15071.83
 20
49477.44
 30
0.0
  0
SEQEND
  8
0
  5
5FA
  0
POLYLINE
  8
31
  6
CONTINUOUS
  5
5FB
 66
     1
 10
0.0
 20
0.0
 30
0.0
 40
0.01
 41
0.01
  0
VERTEX
  8
31
  5
5FC
 10
15071.83
 20
49477.44
 30
0.0
  0
VERTEX
  8
31
  5
5FD
 10
15072.01
 20
49499.61
 30
0.0
  0
SEQEND
  8
0
  5
5FE
  0
POLYLINE
  8
31
  6
CONTINUOUS
  5
5FF
 66
     1
 10
0.0
 20
0.0
 30
0.0
 40
0.01
 41
0.01
  0
VERTEX
  8
31
  5
600
 10
15072.01
 20
49499.61
 30
0.0
  0
VERTEX
  8
31
  5
601
 10
15072.19
 20
49521.78
 30
0.0
  0
SEQEND
  8
0
  5
602
  0
POLYLINE
  8
31
  6
CONTINUOUS
  5
603
 66
     1
 10
0.0
 20
0.0
 30
0.0
 40
0.01
 41
0.01
  0
VERTEX
  8
31
  5
604
 10
15072.19
 20
49521.78
 30
0.0
  0
VERTEX
  8
31
  5
605
 10
15072.38
 20
49544.04
 30
0.0
  0
SEQEND
  8
0
  5
606
  0
POLYLINE
  8
31
  6
CONTINUOUS
  5
607
 66
     1
 10
0.0
 20
0.0
 30
0.0
 40
0.01
 41
0.01
  0
VERTEX
  8
31
  5
608
 10
15072.38
 20
49544.04
 30
0.0
  0
VERTEX
  8
31
  5
609
 10
15103.4
 20
49544.29
 30
0.0
  0
SEQEND
  8
0
  5
60A
  0
POLYLINE
  8
31
  6
CONTINUOUS
  5
60B
 66
     1
 10
0.0
 20
0.0
 30
0.0
 40
0.01
 41
0.01
  0
VERTEX
  8
31
  5
60C
 10
15103.4
 20
49544.29
 30
0.0
  0
VERTEX
  8
31
  5
60D
 10
15103.22
 20
49522.07
 30
0.0
  0
SEQEND
  8
0
  5
60E
  0
POLYLINE
  8
31
  6
CONTINUOUS
  5
60F
 66
     1
 10
0.0
 20
0.0
 30
0.0
 40
0.01
 41
0.01
  0
VERTEX
  8
31
  5
610
 10
15103.22
 20
49522.07
 30
0.0
  0
VERTEX
  8
31
  5
611
 10
15103.04
 20
49499.9
 30
0.0
  0
SEQEND
  8
0
  5
612
  0
POLYLINE
  8
31
  6
CONTINUOUS
  5
613
 66
     1
 10
0.0
 20
0.0
 30
0.0
 40
0.01
 41
0.01
  0
VERTEX
  8
31
  5
614
 10
15103.04
 20
49499.9
 30
0.0
  0
VERTEX
  8
31
  5
615
 10
15102.85
 20
49477.73
 30
0.0
  0
SEQEND
  8
0
  5
616
  0
POLYLINE
  8
31
  6
CONTINUOUS
  5
617
 66
     1
 10
0.0
 20
0.0
 30
0.0
 40
0.01
 41
0.01
  0
VERTEX
  8
31
  5
618
 10
15102.85
 20
49477.73
 30
0.0
  0
VERTEX
  8
31
  5
619
 10
15102.67
 20
49455.57
 30
0.0
  0
SEQEND
  8
0
  5
61A
  0
POLYLINE
  8
31
  6
CONTINUOUS
  5
61B
 66
     1
 10
0.0
 20
0.0
 30
0.0
 40
0.01
 41
0.01
  0
VERTEX
  8
31
  5
61C
 10
15102.67
 20
49455.57
 30
0.0
  0
VERTEX
  8
31
  5
61D
 10
15102.49
 20
49433.4
 30
0.0
  0
SEQEND
  8
0
  5
61E
  0
POLYLINE
  8
31
  6
CONTINUOUS
  5
61F
 66
     1
 10
0.0
 20
0.0
 30
0.0
 40
0.01
 41
0.01
  0
VERTEX
  8
31
  5
620
 10
15102.49
 20
49433.4
 30
0.0
  0
VERTEX
  8
31
  5
621
 10
15102.31
 20
49411.24
 30
0.0
  0
SEQEND
  8
0
  5
622
  0
POLYLINE
  8
31
  6
CONTINUOUS
  5
623
 66
     1
 10
0.0
 20
0.0
 30
0.0
 40
0.01
 41
0.01
  0
VERTEX
  8
31
  5
624
 10
15102.31
 20
49411.24
 30
0.0
  0
VERTEX
  8
31
  5
625
 10
15102.13
 20
49389.07
 30
0.0
  0
SEQEND
  8
0
  5
626
  0
POLYLINE
  8
31
  6
CONTINUOUS
  5
627
 66
     1
 10
0.0
 20
0.0
 30
0.0
 40
0.01
 41
0.01
  0
VERTEX
  8
31
  5
628
 10
15102.13
 20
49389.07
 30
0.0
  0
VERTEX
  8
31
  5
629
 10
15101.94
 20
49366.9
 30
0.0
  0
SEQEND
  8
0
  5
62A
  0
POLYLINE
  8
31
  6
CONTINUOUS
  5
62B
 66
     1
 10
0.0
 20
0.0
 30
0.0
 40
0.01
 41
0.01
  0
VERTEX
  8
31
  5
62C
 10
15101.94
 20
49366.9
 30
0.0
  0
VERTEX
  8
31
  5
62D
 10
15101.76
 20
49344.74
 30
0.0
  0
SEQEND
  8
0
  5
62E
  0
POLYLINE
  8
31
  6
CONTINUOUS
  5
62F
 66
     1
 10
0.0
 20
0.0
 30
0.0
 40
0.01
 41
0.01
  0
VERTEX
  8
31
  5
630
 10
15101.76
 20
49344.74
 30
0.0
  0
VERTEX
  8
31
  5
631
 10
15101.58
 20
49322.57
 30
0.0
  0
SEQEND
  8
0
  5
632
  0
POLYLINE
  8
31
  6
CONTINUOUS
  5
633
 66
     1
 10
0.0
 20
0.0
 30
0.0
 40
0.01
 41
0.01
  0
VERTEX
  8
31
  5
634
 10
15101.58
 20
49322.57
 30
0.0
  0
VERTEX
  8
31
  5
635
 10
15101.4
 20
49300.4
 30
0.0
  0
SEQEND
  8
0
  5
636
  0
POLYLINE
  8
31
  6
CONTINUOUS
  5
637
 66
     1
 10
0.0
 20
0.0
 30
0.0
 40
0.01
 41
0.01
  0
VERTEX
  8
31
  5
638
 10
15101.4
 20
49300.4
 30
0.0
  0
VERTEX
  8
31
  5
639
 10
15101.22
 20
49278.24
 30
0.0
  0
SEQEND
  8
0
  5
63A
  0
POLYLINE
  8
31
  6
CONTINUOUS
  5
63B
 66
     1
 10
0.0
 20
0.0
 30
0.0
 40
0.01
 41
0.01
  0
VERTEX
  8
31
  5
63C
 10
15101.04
 20
49256.07
 30
0.0
  0
VERTEX
  8
31
  5
63D
 10
15100.85
 20
49233.9
 30
0.0
  0
SEQEND
  8
0
  5
63E
  0
POLYLINE
  8
31
  6
CONTINUOUS
  5
63F
 66
     1
 10
0.0
 20
0.0
 30
0.0
 40
0.01
 41
0.01
  0
VERTEX
  8
31
  5
640
 10
15100.85
 20
49233.9
 30
0.0
  0
VERTEX
  8
31
  5
641
 10
15100.68
 20
49213.26
 30
0.0
  0
SEQEND
  8
0
  5
642
  0
POLYLINE
  8
31
  6
CONTINUOUS
  5
643
 66
     1
 10
0.0
 20
0.0
 30
0.0
 40
0.01
 41
0.01
  0
VERTEX
  8
31
  5
644
 10
15100.68
 20
49213.26
 30
0.0
  0
VERTEX
  8
31
  5
645
 10
15100.52
 20
49192.61
 30
0.0
  0
SEQEND
  8
0
  5
646
  0
POLYLINE
  8
31
  6
CONTINUOUS
  5
647
 66
     1
 10
0.0
 20
0.0
 30
0.0
 40
0.01
 41
0.01
  0
VERTEX
  8
31
  5
648
 10
15101.22
 20
49278.24
 30
0.0
  0
VERTEX
  8
31
  5
649
 10
15101.04
 20
49256.07
 30
0.0
  0
SEQEND
  8
0
  5
64A
  0
POLYLINE
  8
31
  6
CONTINUOUS
  5
64B
 66
     1
 10
0.0
 20
0.0
 30
0.0
 40
0.01
 41
0.01
  0
VERTEX
  8
31
  5
64C
 10
15120.26
 20
49147.31
 30
0.0
  0
VERTEX
  8
31
  5
64D
 10
15120.57
 20
49185.52
 30
0.0
  0
SEQEND
  8
0
  5
64E
  0
POLYLINE
  8
31
  6
CONTINUOUS
  5
64F
 66
     1
 10
0.0
 20
0.0
 30
0.0
 40
0.01
 41
0.01
  0
VERTEX
  8
31
  5
650
 10
15120.57
 20
49185.52
 30
0.0
  0
VERTEX
  8
31
  5
651
 10
15120.73
 20
49204.42
 30
0.0
  0
SEQEND
  8
0
  5
652
  0
POLYLINE
  8
31
  6
CONTINUOUS
  5
653
 66
     1
 10
0.0
 20
0.0
 30
0.0
 40
0.01
 41
0.01
  0
VERTEX
  8
31
  5
654
 10
15120.73
 20
49204.42
 30
0.0
  0
VERTEX
  8
31
  5
655
 10
15120.88
 20
49223.31
 30
0.0
  0
SEQEND
  8
0
  5
656
  0
POLYLINE
  8
31
  6
CONTINUOUS
  5
657
 66
     1
 10
0.0
 20
0.0
 30
0.0
 40
0.01
 41
0.01
  0
VERTEX
  8
31
  5
658
 10
15120.88
 20
49223.31
 30
0.0
  0
VERTEX
  8
31
  5
659
 10
15121.04
 20
49242.2
 30
0.0
  0
SEQEND
  8
0
  5
65A
  0
POLYLINE
  8
31
  6
CONTINUOUS
  5
65B
 66
     1
 10
0.0
 20
0.0
 30
0.0
 40
0.01
 41
0.01
  0
VERTEX
  8
31
  5
65C
 10
15121.04
 20
49242.2
 30
0.0
  0
VERTEX
  8
31
  5
65D
 10
15121.19
 20
49261.09
 30
0.0
  0
SEQEND
  8
0
  5
65E
  0
POLYLINE
  8
31
  6
CONTINUOUS
  5
65F
 66
     1
 10
0.0
 20
0.0
 30
0.0
 40
0.01
 41
0.01
  0
VERTEX
  8
31
  5
660
 10
15121.19
 20
49261.09
 30
0.0
  0
VERTEX
  8
31
  5
661
 10
15121.35
 20
49279.98
 30
0.0
  0
SEQEND
  8
0
  5
662
  0
POLYLINE
  8
31
  6
CONTINUOUS
  5
663
 66
     1
 10
0.0
 20
0.0
 30
0.0
 40
0.01
 41
0.01
  0
VERTEX
  8
31
  5
664
 10
15121.35
 20
49279.98
 30
0.0
  0
VERTEX
  8
31
  5
665
 10
15121.5
 20
49298.88
 30
0.0
  0
SEQEND
  8
0
  5
666
  0
POLYLINE
  8
31
  6
CONTINUOUS
  5
667
 66
     1
 10
0.0
 20
0.0
 30
0.0
 40
0.01
 41
0.01
  0
VERTEX
  8
31
  5
668
 10
15121.5
 20
49298.88
 30
0.0
  0
VERTEX
  8
31
  5
669
 10
15121.66
 20
49317.77
 30
0.0
  0
SEQEND
  8
0
  5
66A
  0
POLYLINE
  8
31
  6
CONTINUOUS
  5
66B
 66
     1
 10
0.0
 20
0.0
 30
0.0
 40
0.01
 41
0.01
  0
VERTEX
  8
31
  5
66C
 10
15121.66
 20
49317.77
 30
0.0
  0
VERTEX
  8
31
  5
66D
 10
15121.81
 20
49336.66
 30
0.0
  0
SEQEND
  8
0
  5
66E
  0
POLYLINE
  8
31
  6
CONTINUOUS
  5
66F
 66
     1
 10
0.0
 20
0.0
 30
0.0
 40
0.01
 41
0.01
  0
VERTEX
  8
31
  5
670
 10
15121.81
 20
49336.66
 30
0.0
  0
VERTEX
  8
31
  5
671
 10
15121.97
 20
49355.55
 30
0.0
  0
SEQEND
  8
0
  5
672
  0
POLYLINE
  8
31
  6
CONTINUOUS
  5
673
 66
     1
 10
0.0
 20
0.0
 30
0.0
 40
0.01
 41
0.01
  0
VERTEX
  8
31
  5
674
 10
15121.97
 20
49355.55
 30
0.0
  0
VERTEX
  8
31
  5
675
 10
15122.12
 20
49374.44
 30
0.0
  0
SEQEND
  8
0
  5
676
  0
POLYLINE
  8
31
  6
CONTINUOUS
  5
677
 66
     1
 10
0.0
 20
0.0
 30
0.0
 40
0.01
 41
0.01
  0
VERTEX
  8
31
  5
678
 10
15122.12
 20
49374.44
 30
0.0
  0
VERTEX
  8
31
  5
679
 10
15122.28
 20
49393.33
 30
0.0
  0
SEQEND
  8
0
  5
67A
  0
POLYLINE
  8
31
  6
CONTINUOUS
  5
67B
 66
     1
 10
0.0
 20
0.0
 30
0.0
 40
0.01
 41
0.01
  0
VERTEX
  8
31
  5
67C
 10
15122.28
 20
49393.33
 30
0.0
  0
VERTEX
  8
31
  5
67D
 10
15122.43
 20
49412.23
 30
0.0
  0
SEQEND
  8
0
  5
67E
  0
POLYLINE
  8
31
  6
CONTINUOUS
  5
67F
 66
     1
 10
0.0
 20
0.0
 30
0.0
 40
0.01
 41
0.01
  0
VERTEX
  8
31
  5
680
 10
15122.43
 20
49412.23
 30
0.0
  0
VERTEX
  8
31
  5
681
 10
15122.58
 20
49431.12
 30
0.0
  0
SEQEND
  8
0
  5
682
  0
POLYLINE
  8
31
  6
CONTINUOUS
  5
683
 66
     1
 10
0.0
 20
0.0
 30
0.0
 40
0.01
 41
0.01
  0
VERTEX
  8
31
  5
684
 10
15122.58
 20
49431.12
 30
0.0
  0
VERTEX
  8
31
  5
685
 10
15122.74
 20
49450.01
 30
0.0
  0
SEQEND
  8
0
  5
686
  0
POLYLINE
  8
31
  6
CONTINUOUS
  5
687
 66
     1
 10
0.0
 20
0.0
 30
0.0
 40
0.01
 41
0.01
  0
VERTEX
  8
31
  5
688
 10
15122.74
 20
49450.01
 30
0.0
  0
VERTEX
  8
31
  5
689
 10
15122.89
 20
49468.9
 30
0.0
  0
SEQEND
  8
0
  5
68A
  0
POLYLINE
  8
31
  6
CONTINUOUS
  5
68B
 66
     1
 10
0.0
 20
0.0
 30
0.0
 40
0.01
 41
0.01
  0
VERTEX
  8
31
  5
68C
 10
15122.89
 20
49468.9
 30
0.0
  0
VERTEX
  8
31
  5
68D
 10
15123.05
 20
49487.79
 30
0.0
  0
SEQEND
  8
0
  5
68E
  0
POLYLINE
  8
31
  6
CONTINUOUS
  5
68F
 66
     1
 10
0.0
 20
0.0
 30
0.0
 40
0.01
 41
0.01
  0
VERTEX
  8
31
  5
690
 10
15123.05
 20
49487.79
 30
0.0
  0
VERTEX
  8
31
  5
691
 10
15123.2
 20
49506.69
 30
0.0
  0
SEQEND
  8
0
  5
692
  0
POLYLINE
  8
31
  6
CONTINUOUS
  5
693
 66
     1
 10
0.0
 20
0.0
 30
0.0
 40
0.01
 41
0.01
  0
VERTEX
  8
31
  5
694
 10
15123.2
 20
49506.69
 30
0.0
  0
VERTEX
  8
31
  5
695
 10
15123.36
 20
49525.58
 30
0.0
  0
SEQEND
  8
0
  5
696
  0
POLYLINE
  8
31
  6
CONTINUOUS
  5
697
 66
     1
 10
0.0
 20
0.0
 30
0.0
 40
0.01
 41
0.01
  0
VERTEX
  8
31
  5
698
 10
15123.36
 20
49525.58
 30
0.0
  0
VERTEX
  8
31
  5
699
 10
15123.51
 20
49544.47
 30
0.0
  0
SEQEND
  8
0
  5
69A
  0
POLYLINE
  8
31
  6
CONTINUOUS
  5
69B
 66
     1
 10
0.0
 20
0.0
 30
0.0
 40
0.01
 41
0.01
  0
VERTEX
  8
31
  5
69C
 10
15123.51
 20
49544.47
 30
0.0
  0
VERTEX
  8
31
  5
69D
 10
15162.87
 20
49544.79
 30
0.0
  0
SEQEND
  8
0
  5
69E
  0
POLYLINE
  8
31
  6
CONTINUOUS
  5
69F
 66
     1
 10
0.0
 20
0.0
 30
0.0
 40
0.01
 41
0.01
  0
VERTEX
  8
31
  5
6A0
 10
15162.87
 20
49544.79
 30
0.0
  0
VERTEX
  8
31
  5
6A1
 10
15202.27
 20
49545.08
 30
0.0
  0
SEQEND
  8
0
  5
6A2
  0
POLYLINE
  8
31
  6
CONTINUOUS
  5
6A3
 66
     1
 10
0.0
 20
0.0
 30
0.0
 40
0.01
 41
0.01
  0
VERTEX
  8
31
  5
6A4
 10
15202.27
 20
49545.08
 30
0.0
  0
VERTEX
  8
31
  5
6A5
 10
15202.09
 20
49526.19
 30
0.0
  0
SEQEND
  8
0
  5
6A6
  0
POLYLINE
  8
31
  6
CONTINUOUS
  5
6A7
 66
     1
 10
0.0
 20
0.0
 30
0.0
 40
0.01
 41
0.01
  0
VERTEX
  8
31
  5
6A8
 10
15202.09
 20
49526.19
 30
0.0
  0
VERTEX
  8
31
  5
6A9
 10
15201.91
 20
49507.3
 30
0.0
  0
SEQEND
  8
0
  5
6AA
  0
POLYLINE
  8
31
  6
CONTINUOUS
  5
6AB
 66
     1
 10
0.0
 20
0.0
 30
0.0
 40
0.01
 41
0.01
  0
VERTEX
  8
31
  5
6AC
 10
15201.91
 20
49507.3
 30
0.0
  0
VERTEX
  8
31
  5
6AD
 10
15201.73
 20
49488.41
 30
0.0
  0
SEQEND
  8
0
  5
6AE
  0
POLYLINE
  8
31
  6
CONTINUOUS
  5
6AF
 66
     1
 10
0.0
 20
0.0
 30
0.0
 40
0.01
 41
0.01
  0
VERTEX
  8
31
  5
6B0
 10
15201.73
 20
49488.41
 30
0.0
  0
VERTEX
  8
31
  5
6B1
 10
15201.55
 20
49469.52
 30
0.0
  0
SEQEND
  8
0
  5
6B2
  0
POLYLINE
  8
31
  6
CONTINUOUS
  5
6B3
 66
     1
 10
0.0
 20
0.0
 30
0.0
 40
0.01
 41
0.01
  0
VERTEX
  8
31
  5
6B4
 10
15201.55
 20
49469.52
 30
0.0
  0
VERTEX
  8
31
  5
6B5
 10
15201.37
 20
49450.62
 30
0.0
  0
SEQEND
  8
0
  5
6B6
  0
POLYLINE
  8
31
  6
CONTINUOUS
  5
6B7
 66
     1
 10
0.0
 20
0.0
 30
0.0
 40
0.01
 41
0.01
  0
VERTEX
  8
31
  5
6B8
 10
15201.37
 20
49450.62
 30
0.0
  0
VERTEX
  8
31
  5
6B9
 10
15201.19
 20
49431.73
 30
0.0
  0
SEQEND
  8
0
  5
6BA
  0
POLYLINE
  8
31
  6
CONTINUOUS
  5
6BB
 66
     1
 10
0.0
 20
0.0
 30
0.0
 40
0.01
 41
0.01
  0
VERTEX
  8
31
  5
6BC
 10
15201.19
 20
49431.73
 30
0.0
  0
VERTEX
  8
31
  5
6BD
 10
15201.01
 20
49412.84
 30
0.0
  0
SEQEND
  8
0
  5
6BE
  0
POLYLINE
  8
31
  6
CONTINUOUS
  5
6BF
 66
     1
 10
0.0
 20
0.0
 30
0.0
 40
0.01
 41
0.01
  0
VERTEX
  8
31
  5
6C0
 10
15201.01
 20
49412.84
 30
0.0
  0
VERTEX
  8
31
  5
6C1
 10
15200.83
 20
49393.95
 30
0.0
  0
SEQEND
  8
0
  5
6C2
  0
POLYLINE
  8
31
  6
CONTINUOUS
  5
6C3
 66
     1
 10
0.0
 20
0.0
 30
0.0
 40
0.01
 41
0.01
  0
VERTEX
  8
31
  5
6C4
 10
15200.83
 20
49393.95
 30
0.0
  0
VERTEX
  8
31
  5
6C5
 10
15200.64
 20
49375.06
 30
0.0
  0
SEQEND
  8
0
  5
6C6
  0
POLYLINE
  8
31
  6
CONTINUOUS
  5
6C7
 66
     1
 10
0.0
 20
0.0
 30
0.0
 40
0.01
 41
0.01
  0
VERTEX
  8
31
  5
6C8
 10
15200.64
 20
49375.06
 30
0.0
  0
VERTEX
  8
31
  5
6C9
 10
15200.46
 20
49356.16
 30
0.0
  0
SEQEND
  8
0
  5
6CA
  0
POLYLINE
  8
31
  6
CONTINUOUS
  5
6CB
 66
     1
 10
0.0
 20
0.0
 30
0.0
 40
0.01
 41
0.01
  0
VERTEX
  8
31
  5
6CC
 10
15200.46
 20
49356.16
 30
0.0
  0
VERTEX
  8
31
  5
6CD
 10
15200.28
 20
49337.27
 30
0.0
  0
SEQEND
  8
0
  5
6CE
  0
POLYLINE
  8
31
  6
CONTINUOUS
  5
6CF
 66
     1
 10
0.0
 20
0.0
 30
0.0
 40
0.01
 41
0.01
  0
VERTEX
  8
31
  5
6D0
 10
15200.28
 20
49337.27
 30
0.0
  0
VERTEX
  8
31
  5
6D1
 10
15200.1
 20
49318.38
 30
0.0
  0
SEQEND
  8
0
  5
6D2
  0
POLYLINE
  8
31
  6
CONTINUOUS
  5
6D3
 66
     1
 10
0.0
 20
0.0
 30
0.0
 40
0.01
 41
0.01
  0
VERTEX
  8
31
  5
6D4
 10
15200.1
 20
49318.38
 30
0.0
  0
VERTEX
  8
31
  5
6D5
 10
15199.92
 20
49299.49
 30
0.0
  0
SEQEND
  8
0
  5
6D6
  0
POLYLINE
  8
31
  6
CONTINUOUS
  5
6D7
 66
     1
 10
0.0
 20
0.0
 30
0.0
 40
0.01
 41
0.01
  0
VERTEX
  8
31
  5
6D8
 10
15199.74
 20
49280.6
 30
0.0
  0
VERTEX
  8
31
  5
6D9
 10
15199.92
 20
49299.49
 30
0.0
  0
SEQEND
  8
0
  5
6DA
  0
POLYLINE
  8
31
  6
CONTINUOUS
  5
6DB
 66
     1
 10
0.0
 20
0.0
 30
0.0
 40
0.01
 41
0.01
  0
VERTEX
  8
31
  5
6DC
 10
15199.74
 20
49280.6
 30
0.0
  0
VERTEX
  8
31
  5
6DD
 10
15199.56
 20
49261.7
 30
0.0
  0
SEQEND
  8
0
  5
6DE
  0
POLYLINE
  8
31
  6
CONTINUOUS
  5
6DF
 66
     1
 10
0.0
 20
0.0
 30
0.0
 40
0.01
 41
0.01
  0
VERTEX
  8
31
  5
6E0
 10
15199.56
 20
49261.7
 30
0.0
  0
VERTEX
  8
31
  5
6E1
 10
15199.38
 20
49242.81
 30
0.0
  0
SEQEND
  8
0
  5
6E2
  0
POLYLINE
  8
31
  6
CONTINUOUS
  5
6E3
 66
     1
 10
0.0
 20
0.0
 30
0.0
 40
0.01
 41
0.01
  0
VERTEX
  8
31
  5
6E4
 10
15199.38
 20
49242.81
 30
0.0
  0
VERTEX
  8
31
  5
6E5
 10
15199.2
 20
49223.92
 30
0.0
  0
SEQEND
  8
0
  5
6E6
  0
POLYLINE
  8
31
  6
CONTINUOUS
  5
6E7
 66
     1
 10
0.0
 20
0.0
 30
0.0
 40
0.01
 41
0.01
  0
VERTEX
  8
31
  5
6E8
 10
15199.2
 20
49223.92
 30
0.0
  0
VERTEX
  8
31
  5
6E9
 10
15199.02
 20
49205.03
 30
0.0
  0
SEQEND
  8
0
  5
6EA
  0
POLYLINE
  8
31
  6
CONTINUOUS
  5
6EB
 66
     1
 10
0.0
 20
0.0
 30
0.0
 40
0.01
 41
0.01
  0
VERTEX
  8
31
  5
6EC
 10
15199.02
 20
49205.03
 30
0.0
  0
VERTEX
  8
31
  5
6ED
 10
15198.8
 20
49182.68
 30
0.0
  0
SEQEND
  8
0
  5
6EE
  0
POLYLINE
  8
31
  6
CONTINUOUS
  5
6EF
 66
     1
 10
0.0
 20
0.0
 30
0.0
 40
0.01
 41
0.01
  0
VERTEX
  8
31
  5
6F0
 10
15198.8
 20
49182.68
 30
0.0
  0
VERTEX
  8
31
  5
6F1
 10
15198.46
 20
49146.41
 30
0.0
  0
SEQEND
  8
0
  5
6F2
  0
POLYLINE
  8
31
  6
CONTINUOUS
  5
6F3
 66
     1
 10
0.0
 20
0.0
 30
0.0
 40
0.01
 41
0.01
  0
VERTEX
  8
31
  5
6F4
 10
15198.46
 20
49146.41
 30
0.0
  0
VERTEX
  8
31
  5
6F5
 10
15178.95
 20
49146.15
 30
0.0
  0
SEQEND
  8
0
  5
6F6
  0
POLYLINE
  8
31
  6
CONTINUOUS
  5
6F7
 66
     1
 10
0.0
 20
0.0
 30
0.0
 40
0.01
 41
0.01
  0
VERTEX
  8
31
  5
6F8
 10
15178.95
 20
49146.15
 30
0.0
  0
VERTEX
  8
31
  5
6F9
 10
15159.34
 20
49145.89
 30
0.0
  0
SEQEND
  8
0
  5
6FA
  0
POLYLINE
  8
31
  6
CONTINUOUS
  5
6FB
 66
     1
 10
0.0
 20
0.0
 30
0.0
 40
0.01
 41
0.01
  0
VERTEX
  8
31
  5
6FC
 10
15139.79
 20
49145.67
 30
0.0
  0
VERTEX
  8
31
  5
6FD
 10
15159.34
 20
49145.89
 30
0.0
  0
SEQEND
  8
0
  5
6FE
  0
POLYLINE
  8
31
  6
CONTINUOUS
  5
6FF
 66
     1
 10
0.0
 20
0.0
 30
0.0
 40
0.01
 41
0.01
  0
VERTEX
  8
31
  5
700
 10
15139.79
 20
49145.67
 30
0.0
  0
VERTEX
  8
31
  5
701
 10
15121.18
 20
49145.46
 30
0.0
  0
SEQEND
  8
0
  5
702
  0
POLYLINE
  8
31
  6
CONTINUOUS
  5
703
 66
     1
 10
0.0
 20
0.0
 30
0.0
 40
0.01
 41
0.01
  0
VERTEX
  8
31
  5
704
 10
15121.18
 20
49145.46
 30
0.0
  0
VERTEX
  8
31
  5
705
 10
15120.26
 20
49147.31
 30
0.0
  0
SEQEND
  8
0
  5
706
  0
LINE
  8
32
  6
CONTINUOUS
  5
707
 10
15159.69
 20
49185.84
 30
0.0
 11
15159.66
 21
49182.18
 31
0.0
  0
LINE
  8
32
  6
CONTINUOUS
  5
708
 10
15159.66
 20
49182.18
 30
0.0
 11
15159.34
 21
49145.89
 31
0.0
  0
LINE
  8
32
  6
CONTINUOUS
  5
709
 10
15198.8
 20
49182.68
 30
0.0
 11
15179.3
 21
49182.42
 31
0.0
  0
LINE
  8
32
  6
CONTINUOUS
  5
70A
 10
15179.3
 20
49182.42
 30
0.0
 11
15159.66
 21
49182.18
 31
0.0
  0
LINE
  8
32
  6
CONTINUOUS
  5
70B
 10
15178.95
 20
49146.15
 30
0.0
 11
15179.3
 21
49182.42
 31
0.0
  0
LINE
  8
32
  6
CONTINUOUS
  5
70C
 10
15159.69
 20
49185.84
 30
0.0
 11
15159.86
 21
49204.73
 31
0.0
  0
LINE
  8
32
  6
CONTINUOUS
  5
70D
 10
15161.2
 20
49355.87
 30
0.0
 11
15161.37
 21
49374.76
 31
0.0
  0
LINE
  8
32
  6
CONTINUOUS
  5
70E
 10
15161.37
 20
49374.76
 30
0.0
 11
15161.53
 21
49393.65
 31
0.0
  0
LINE
  8
32
  6
CONTINUOUS
  5
70F
 10
15161.53
 20
49393.65
 30
0.0
 11
15161.7
 21
49412.55
 31
0.0
  0
LINE
  8
32
  6
CONTINUOUS
  5
710
 10
15161.7
 20
49412.55
 30
0.0
 11
15161.87
 21
49431.44
 31
0.0
  0
LINE
  8
32
  6
CONTINUOUS
  5
711
 10
15161.87
 20
49431.44
 30
0.0
 11
15162.04
 21
49450.33
 31
0.0
  0
LINE
  8
32
  6
CONTINUOUS
  5
712
 10
15162.04
 20
49450.33
 30
0.0
 11
15162.2
 21
49469.22
 31
0.0
  0
LINE
  8
32
  6
CONTINUOUS
  5
713
 10
15162.2
 20
49469.22
 30
0.0
 11
15162.37
 21
49488.12
 31
0.0
  0
LINE
  8
32
  6
CONTINUOUS
  5
714
 10
15162.37
 20
49488.12
 30
0.0
 11
15162.54
 21
49507.01
 31
0.0
  0
LINE
  8
32
  6
CONTINUOUS
  5
715
 10
15162.54
 20
49507.01
 30
0.0
 11
15162.71
 21
49525.9
 31
0.0
  0
LINE
  8
32
  6
CONTINUOUS
  5
716
 10
15162.71
 20
49525.9
 30
0.0
 11
15162.87
 21
49544.79
 31
0.0
  0
LINE
  8
32
  6
CONTINUOUS
  5
717
 10
15069.63
 20
49212.91
 30
0.0
 11
15100.68
 21
49213.26
 31
0.0
  0
LINE
  8
32
  6
CONTINUOUS
  5
718
 10
15069.8
 20
49233.56
 30
0.0
 11
15100.85
 21
49233.9
 31
0.0
  0
LINE
  8
32
  6
CONTINUOUS
  5
719
 10
15069.99
 20
49255.73
 30
0.0
 11
15101.04
 21
49256.07
 31
0.0
  0
LINE
  8
32
  6
CONTINUOUS
  5
71A
 10
15069.99
 20
49255.73
 30
0.0
 11
15101.04
 21
49256.07
 31
0.0
  0
LINE
  8
32
  6
CONTINUOUS
  5
71B
 10
15070.17
 20
49277.9
 30
0.0
 11
15101.22
 21
49278.24
 31
0.0
  0
LINE
  8
32
  6
CONTINUOUS
  5
71C
 10
15070.36
 20
49300.07
 30
0.0
 11
15101.4
 21
49300.4
 31
0.0
  0
LINE
  8
32
  6
CONTINUOUS
  5
71D
 10
15070.54
 20
49322.25
 30
0.0
 11
15101.58
 21
49322.57
 31
0.0
  0
LINE
  8
32
  6
CONTINUOUS
  5
71E
 10
15070.72
 20
49344.42
 30
0.0
 11
15101.76
 21
49344.74
 31
0.0
  0
LINE
  8
32
  6
CONTINUOUS
  5
71F
 10
15070.91
 20
49366.59
 30
0.0
 11
15101.94
 21
49366.9
 31
0.0
  0
LINE
  8
32
  6
CONTINUOUS
  5
720
 10
15071.09
 20
49388.76
 30
0.0
 11
15102.13
 21
49389.07
 31
0.0
  0
LINE
  8
32
  6
CONTINUOUS
  5
721
 10
15071.27
 20
49410.93
 30
0.0
 11
15102.31
 21
49411.24
 31
0.0
  0
LINE
  8
32
  6
CONTINUOUS
  5
722
 10
15071.46
 20
49433.1
 30
0.0
 11
15102.49
 21
49433.4
 31
0.0
  0
LINE
  8
32
  6
CONTINUOUS
  5
723
 10
15071.64
 20
49455.27
 30
0.0
 11
15102.67
 21
49455.57
 31
0.0
  0
LINE
  8
32
  6
CONTINUOUS
  5
724
 10
15071.83
 20
49477.44
 30
0.0
 11
15102.85
 21
49477.73
 31
0.0
  0
LINE
  8
32
  6
CONTINUOUS
  5
725
 10
15072.01
 20
49499.61
 30
0.0
 11
15103.04
 21
49499.9
 31
0.0
  0
LINE
  8
32
  6
CONTINUOUS
  5
726
 10
15072.19
 20
49521.78
 30
0.0
 11
15103.22
 21
49522.07
 31
0.0
  0
LINE
  8
32
  6
CONTINUOUS
  5
727
 10
15066.19
 20
49164.95
 30
0.0
 11
15100.29
 21
49165.33
 31
0.0
  0
LINE
  8
32
  6
CONTINUOUS
  5
728
 10
15139.79
 20
49145.67
 30
0.0
 11
15140.15
 21
49185.68
 31
0.0
  0
LINE
  8
32
  6
CONTINUOUS
  5
729
 10
15140.15
 20
49185.68
 30
0.0
 11
15120.57
 21
49185.52
 31
0.0
  0
LINE
  8
32
  6
CONTINUOUS
  5
72A
 10
15140.15
 20
49185.68
 30
0.0
 11
15159.69
 21
49185.84
 31
0.0
  0
LINE
  8
32
  6
CONTINUOUS
  5
72B
 10
15159.86
 20
49204.73
 30
0.0
 11
15160.03
 21
49223.62
 31
0.0
  0
LINE
  8
32
  6
CONTINUOUS
  5
72C
 10
15160.03
 20
49223.62
 30
0.0
 11
15160.19
 21
49242.52
 31
0.0
  0
LINE
  8
32
  6
CONTINUOUS
  5
72D
 10
15160.19
 20
49242.52
 30
0.0
 11
15160.36
 21
49261.41
 31
0.0
  0
LINE
  8
32
  6
CONTINUOUS
  5
72E
 10
15160.36
 20
49261.41
 30
0.0
 11
15160.53
 21
49280.3
 31
0.0
  0
LINE
  8
32
  6
CONTINUOUS
  5
72F
 10
15160.53
 20
49280.3
 30
0.0
 11
15160.7
 21
49299.19
 31
0.0
  0
LINE
  8
32
  6
CONTINUOUS
  5
730
 10
15160.7
 20
49299.19
 30
0.0
 11
15160.86
 21
49318.08
 31
0.0
  0
LINE
  8
32
  6
CONTINUOUS
  5
731
 10
15160.86
 20
49318.08
 30
0.0
 11
15161.03
 21
49336.98
 31
0.0
  0
LINE
  8
32
  6
CONTINUOUS
  5
732
 10
15161.03
 20
49336.98
 30
0.0
 11
15161.2
 21
49355.87
 31
0.0
  0
LINE
  8
32
  6
CONTINUOUS
  5
733
 10
15123.36
 20
49525.58
 30
0.0
 11
15162.71
 21
49525.9
 31
0.0
  0
LINE
  8
32
  6
CONTINUOUS
  5
734
 10
15162.71
 20
49525.9
 30
0.0
 11
15202.09
 21
49526.19
 31
0.0
  0
LINE
  8
32
  6
CONTINUOUS
  5
735
 10
15123.2
 20
49506.69
 30
0.0
 11
15162.54
 21
49507.01
 31
0.0
  0
LINE
  8
32
  6
CONTINUOUS
  5
736
 10
15162.54
 20
49507.01
 30
0.0
 11
15201.91
 21
49507.3
 31
0.0
  0
LINE
  8
32
  6
CONTINUOUS
  5
737
 10
15123.05
 20
49487.79
 30
0.0
 11
15162.37
 21
49488.12
 31
0.0
  0
LINE
  8
32
  6
CONTINUOUS
  5
738
 10
15162.37
 20
49488.12
 30
0.0
 11
15201.73
 21
49488.41
 31
0.0
  0
LINE
  8
32
  6
CONTINUOUS
  5
739
 10
15122.89
 20
49468.9
 30
0.0
 11
15162.2
 21
49469.22
 31
0.0
  0
LINE
  8
32
  6
CONTINUOUS
  5
73A
 10
15162.2
 20
49469.22
 30
0.0
 11
15201.55
 21
49469.52
 31
0.0
  0
LINE
  8
32
  6
CONTINUOUS
  5
73B
 10
15122.74
 20
49450.01
 30
0.0
 11
15162.04
 21
49450.33
 31
0.0
  0
LINE
  8
32
  6
CONTINUOUS
  5
73C
 10
15162.04
 20
49450.33
 30
0.0
 11
15201.37
 21
49450.62
 31
0.0
  0
LINE
  8
32
  6
CONTINUOUS
  5
73D
 10
15122.58
 20
49431.12
 30
0.0
 11
15161.87
 21
49431.44
 31
0.0
  0
LINE
  8
32
  6
CONTINUOUS
  5
73E
 10
15161.87
 20
49431.44
 30
0.0
 11
15201.19
 21
49431.73
 31
0.0
  0
LINE
  8
32
  6
CONTINUOUS
  5
73F
 10
15122.43
 20
49412.23
 30
0.0
 11
15161.7
 21
49412.55
 31
0.0
  0
LINE
  8
32
  6
CONTINUOUS
  5
740
 10
15161.7
 20
49412.55
 30
0.0
 11
15201.01
 21
49412.84
 31
0.0
  0
LINE
  8
32
  6
CONTINUOUS
  5
741
 10
15122.28
 20
49393.33
 30
0.0
 11
15161.53
 21
49393.65
 31
0.0
  0
LINE
  8
32
  6
CONTINUOUS
  5
742
 10
15161.53
 20
49393.65
 30
0.0
 11
15200.83
 21
49393.95
 31
0.0
  0
LINE
  8
32
  6
CONTINUOUS
  5
743
 10
15122.12
 20
49374.44
 30
0.0
 11
15161.37
 21
49374.76
 31
0.0
  0
LINE
  8
32
  6
CONTINUOUS
  5
744
 10
15161.37
 20
49374.76
 30
0.0
 11
15200.64
 21
49375.06
 31
0.0
  0
LINE
  8
32
  6
CONTINUOUS
  5
745
 10
15121.97
 20
49355.55
 30
0.0
 11
15161.2
 21
49355.87
 31
0.0
  0
LINE
  8
32
  6
CONTINUOUS
  5
746
 10
15161.2
 20
49355.87
 30
0.0
 11
15200.46
 21
49356.16
 31
0.0
  0
LINE
  8
32
  6
CONTINUOUS
  5
747
 10
15121.81
 20
49336.66
 30
0.0
 11
15161.03
 21
49336.98
 31
0.0
  0
LINE
  8
32
  6
CONTINUOUS
  5
748
 10
15161.03
 20
49336.98
 30
0.0
 11
15200.28
 21
49337.27
 31
0.0
  0
LINE
  8
32
  6
CONTINUOUS
  5
749
 10
15121.66
 20
49317.77
 30
0.0
 11
15160.86
 21
49318.08
 31
0.0
  0
LINE
  8
32
  6
CONTINUOUS
  5
74A
 10
15160.86
 20
49318.08
 30
0.0
 11
15200.1
 21
49318.38
 31
0.0
  0
LINE
  8
32
  6
CONTINUOUS
  5
74B
 10
15121.5
 20
49298.88
 30
0.0
 11
15160.7
 21
49299.19
 31
0.0
  0
LINE
  8
32
  6
CONTINUOUS
  5
74C
 10
15160.7
 20
49299.19
 30
0.0
 11
15199.92
 21
49299.49
 31
0.0
  0
LINE
  8
32
  6
CONTINUOUS
  5
74D
 10
15121.35
 20
49279.98
 30
0.0
 11
15160.53
 21
49280.3
 31
0.0
  0
LINE
  8
32
  6
CONTINUOUS
  5
74E
 10
15160.53
 20
49280.3
 30
0.0
 11
15199.74
 21
49280.6
 31
0.0
  0
LINE
  8
32
  6
CONTINUOUS
  5
74F
 10
15121.19
 20
49261.09
 30
0.0
 11
15160.36
 21
49261.41
 31
0.0
  0
LINE
  8
32
  6
CONTINUOUS
  5
750
 10
15160.36
 20
49261.41
 30
0.0
 11
15199.56
 21
49261.7
 31
0.0
  0
LINE
  8
32
  6
CONTINUOUS
  5
751
 10
15121.04
 20
49242.2
 30
0.0
 11
15160.19
 21
49242.52
 31
0.0
  0
LINE
  8
32
  6
CONTINUOUS
  5
752
 10
15160.19
 20
49242.52
 30
0.0
 11
15199.38
 21
49242.81
 31
0.0
  0
LINE
  8
32
  6
CONTINUOUS
  5
753
 10
15120.88
 20
49223.31
 30
0.0
 11
15160.03
 21
49223.62
 31
0.0
  0
LINE
  8
32
  6
CONTINUOUS
  5
754
 10
15160.03
 20
49223.62
 30
0.0
 11
15199.2
 21
49223.92
 31
0.0
  0
LINE
  8
32
  6
CONTINUOUS
  5
755
 10
15120.73
 20
49204.42
 30
0.0
 11
15159.86
 21
49204.73
 31
0.0
  0
LINE
  8
32
  6
CONTINUOUS
  5
756
 10
15159.86
 20
49204.73
 30
0.0
 11
15199.02
 21
49205.03
 31
0.0
  0
POLYLINE
  8
31
  6
CONTINUOUS
  5
757
 66
     1
 10
0.0
 20
0.0
 30
0.0
 40
0.01
 41
0.01
  0
VERTEX
  8
31
  5
758
 10
14885.62
 20
49144.63
 30
0.0
  0
VERTEX
  8
31
  5
759
 10
14911.64
 20
49144.92
 30
0.0
  0
SEQEND
  8
0
  5
75A
  0
POLYLINE
  8
31
  6
CONTINUOUS
  5
75B
 66
     1
 10
0.0
 20
0.0
 30
0.0
 40
0.01
 41
0.01
  0
VERTEX
  8
31
  5
75C
 10
14911.64
 20
49144.92
 30
0.0
  0
VERTEX
  8
31
  5
75D
 10
14913.65
 20
49146.94
 30
0.0
  0
SEQEND
  8
0
  5
75E
  0
POLYLINE
  8
31
  6
CONTINUOUS
  5
75F
 66
     1
 10
0.0
 20
0.0
 30
0.0
 40
0.01
 41
0.01
  0
VERTEX
  8
31
  5
760
 10
14919.65
 20
49147.06
 30
0.0
  0
VERTEX
  8
31
  5
761
 10
14921.64
 20
49145.09
 30
0.0
  0
SEQEND
  8
0
  5
762
  0
POLYLINE
  8
31
  6
CONTINUOUS
  5
763
 66
     1
 10
0.0
 20
0.0
 30
0.0
 40
0.01
 41
0.01
  0
VERTEX
  8
31
  5
764
 10
14921.64
 20
49145.09
 30
0.0
  0
VERTEX
  8
31
  5
765
 10
14937.76
 20
49145.26
 30
0.0
  0
SEQEND
  8
0
  5
766
  0
TEXT
  8
42
  6
CONTINUOUS
  5
768
 10
14901.13
 20
49159.78
 30
0.0
 40
5.0
  1
15245
 50
90.0
 41
0.8
  7
ITALICS
  0
TEXT
  8
42
  6
CONTINUOUS
  5
76A
 10
14932.2
 20
49160.17
 30
0.0
 40
5.0
  1
15253
 50
90.0
 41
0.8
  7
ITALICS
  0
TEXT
  8
42
  6
CONTINUOUS
  5
76C
 10
15075.18
 20
49156.84
 30
0.0
 40
5.0
  1
15343
 41
0.8
  7
ITALICS
  0
TEXT
  8
42
  6
CONTINUOUS
  5
76E
 10
15132.98
 20
49160.56
 30
0.0
 40
5.0
  1
15357
 50
90.0
 41
0.8
  7
ITALICS
  0
TEXT
  8
42
  6
CONTINUOUS
  5
770
 10
15191.2
 20
49161.28
 30
0.0
 40
5.0
  1
15393
 50
90.0
 41
0.8
  7
ITALICS
  0
TEXT
  8
42
  6
CONTINUOUS
  5
772
 10
15152.06
 20
49160.78
 30
0.0
 40
5.0
  1
  73
 50
90.0
 41
0.8
  7
ITALICS
  0
TEXT
  8
42
  6
CONTINUOUS
  5
774
 10
15171.64
 20
49161.02
 30
0.0
 40
5.0
  1
  83
 50
90.0
 41
0.8
  7
ITALICS
  0
TEXT
  8
42
  6
CONTINUOUS
  5
776
 10
15066.42
 20
49172.73
 30
0.0
 40
5.0
  1
 9625
 50
359.0
 41
0.8
  7
ITALICS
 72
     2
 11
15086.08
 21
49174.89
 31
0.0
 73
     2
  0
TEXT
  8
42
  6
CONTINUOUS
  5
778
 10
15068.17
 20
49332.6
 30
0.0
 40
5.0
  1
 9691
 50
359.0
 41
0.8
  7
ITALICS
 72
     2
 11
15086.88
 21
49334.77
 31
0.0
 73
     2
  0
TEXT
  8
42
  6
CONTINUOUS
  5
77A
 10
15069.0
 20
49352.58
 30
0.0
 40
5.0
  1
 9711
 50
359.0
 41
0.8
  7
ITALICS
 72
     2
 11
15087.71
 21
49354.75
 31
0.0
 73
     2
  0
TEXT
  8
42
  6
CONTINUOUS
  5
77C
 10
15068.05
 20
49529.95
 30
0.0
 40
5.0
  1
 9787
 50
359.0
 41
0.8
  7
ITALICS
 72
     2
 11
15087.71
 21
49532.11
 31
0.0
 73
     2
  0
TEXT
  8
42
  6
CONTINUOUS
  5
77E
 10
15067.41
 20
49201.88
 30
0.0
 40
5.0
  1
 9639
 50
359.0
 41
0.8
  7
ITALICS
 72
     2
 11
15086.88
 21
49204.04
 31
0.0
 73
     2
  0
TEXT
  8
42
  6
CONTINUOUS
  5
780
 10
15070.39
 20
49223.46
 30
0.0
 40
5.0
  1
  47
 50
359.0
 41
0.8
  7
ITALICS
 72
     2
 11
15086.05
 21
49225.69
 31
0.0
 73
     2
  0
TEXT
  8
42
  6
CONTINUOUS
  5
782
 10
15069.78
 20
49243.44
 30
0.0
 40
5.0
  1
  53
 50
359.0
 41
0.8
  7
ITALICS
 72
     2
 11
15085.25
 21
49245.67
 31
0.0
 73
     2
  0
TEXT
  8
42
  6
CONTINUOUS
  5
784
 10
15070.61
 20
49264.26
 30
0.0
 40
5.0
  1
  63
 50
359.0
 41
0.8
  7
ITALICS
 72
     2
 11
15086.08
 21
49266.49
 31
0.0
 73
     2
  0
TEXT
  8
42
  6
CONTINUOUS
  5
786
 10
15071.34
 20
49289.23
 30
0.0
 40
5.0
  1
  71
 50
359.0
 41
0.8
  7
ITALICS
 72
     2
 11
15086.05
 21
49291.47
 31
0.0
 73
     2
  0
TEXT
  8
42
  6
CONTINUOUS
  5
788
 10
15071.34
 20
49311.71
 30
0.0
 40
5.0
  1
  81
 50
359.0
 41
0.8
  7
ITALICS
 72
     2
 11
15086.05
 21
49313.95
 31
0.0
 73
     2
  0
TEXT
  8
42
  6
CONTINUOUS
  5
78A
 10
15073.08
 20
49375.0
 30
0.0
 40
5.0
  1
  19
 50
359.0
 41
0.8
  7
ITALICS
 72
     2
 11
15088.55
 21
49377.23
 31
0.0
 73
     2
  0
TEXT
  8
42
  6
CONTINUOUS
  5
78C
 10
15071.41
 20
49397.49
 30
0.0
 40
5.0
  1
  29
 50
359.0
 41
0.8
  7
ITALICS
 72
     2
 11
15086.88
 21
49399.72
 31
0.0
 73
     2
  0
TEXT
  8
42
  6
CONTINUOUS
  5
78E
 10
15070.42
 20
49418.3
 30
0.0
 40
5.0
  1
  35
 50
359.0
 41
0.8
  7
ITALICS
 72
     2
 11
15086.08
 21
49420.53
 31
0.0
 73
     2
  0
TEXT
  8
42
  6
CONTINUOUS
  5
790
 10
15070.58
 20
49425.8
 30
0.0
 40
5.0
  1
  39
 50
359.0
 41
0.8
  7
ITALICS
 72
     2
 11
15086.05
 21
49428.03
 31
0.0
 73
     2
  0
TEXT
  8
42
  6
CONTINUOUS
  5
793
 10
15072.05
 20
49467.43
 30
0.0
 40
5.0
  1
  57
 50
359.0
 41
0.8
  7
ITALICS
 72
     2
 11
15087.71
 21
49469.66
 31
0.0
 73
     2
  0
TEXT
  8
42
  6
CONTINUOUS
  5
795
 10
15072.89
 20
49488.25
 30
0.0
 40
5.0
  1
  67
 50
359.0
 41
0.8
  7
ITALICS
 72
     2
 11
15088.55
 21
49490.48
 31
0.0
 73
     2
  0
TEXT
  8
42
  6
CONTINUOUS
  5
797
 10
15072.28
 20
49508.23
 30
0.0
 40
5.0
  1
  73
 50
359.0
 41
0.8
  7
ITALICS
 72
     2
 11
15087.75
 21
49510.46
 31
0.0
 73
     2
  0
TEXT
  8
42
  6
CONTINUOUS
  5
799
 10
15136.02
 20
49191.85
 30
0.0
 40
5.0
  1
 9620
 50
359.0
 41
0.8
  7
ITALICS
  0
TEXT
  8
42
  6
CONTINUOUS
  5
79B
 10
15136.85
 20
49325.08
 30
0.0
 40
5.0
  1
 9696
 50
359.0
 41
0.8
  7
ITALICS
  0
TEXT
  8
42
  6
CONTINUOUS
  5
79D
 10
15137.68
 20
49344.23
 30
0.0
 40
5.0
  1
 9700
 50
359.0
 41
0.8
  7
ITALICS
  0
TEXT
  8
42
  6
CONTINUOUS
  5
79F
 10
15136.85
 20
49533.25
 30
0.0
 40
5.0
  1
 9792
 50
359.0
 41
0.8
  7
ITALICS
  0
TEXT
  8
42
  6
CONTINUOUS
  5
7A1
 10
15136.02
 20
49210.17
 30
0.0
 40
5.0
  1
  34
 50
359.0
 41
0.8
  7
ITALICS
  0
TEXT
  8
42
  6
CONTINUOUS
  5
7A3
 10
15136.02
 20
49230.99
 30
0.0
 40
5.0
  1
  46
 50
359.0
 41
0.8
  7
ITALICS
  0
TEXT
  8
42
  6
CONTINUOUS
  5
7A5
 10
15134.35
 20
49249.31
 30
0.0
 40
5.0
  1
  56
 50
359.0
 41
0.8
  7
ITALICS
  0
TEXT
  8
42
  6
CONTINUOUS
  5
7A7
 10
15136.85
 20
49266.79
 30
0.0
 40
5.0
  1
  64
 50
359.0
 41
0.8
  7
ITALICS
  0
TEXT
  8
42
  6
CONTINUOUS
  5
7A9
 10
15136.85
 20
49286.78
 30
0.0
 40
5.0
  1
  74
 50
359.0
 41
0.8
  7
ITALICS
  0
TEXT
  8
42
  6
CONTINUOUS
  5
7AB
 10
15137.68
 20
49305.1
 30
0.0
 40
5.0
  1
  82
 50
359.0
 41
0.8
  7
ITALICS
  0
TEXT
  8
42
  6
CONTINUOUS
  5
7AD
 10
15137.68
 20
49362.55
 30
0.0
 40
5.0
  1
  10
 50
359.0
 41
0.8
  7
ITALICS
  0
TEXT
  8
42
  6
CONTINUOUS
  5
7AF
 10
15139.35
 20
49381.7
 30
0.0
 40
5.0
  1
  18
 50
359.0
 41
0.8
  7
ITALICS
  0
TEXT
  8
42
  6
CONTINUOUS
  5
7B1
 10
15138.51
 20
49400.02
 30
0.0
 40
5.0
  1
  30
 50
359.0
 41
0.8
  7
ITALICS
  0
TEXT
  8
42
  6
CONTINUOUS
  5
7B3
 10
15137.68
 20
49438.33
 30
0.0
 40
5.0
  1
  48
 50
359.0
 41
0.8
  7
ITALICS
  0
TEXT
  8
42
  6
CONTINUOUS
  5
7B5
 10
15138.51
 20
49457.48
 30
0.0
 40
5.0
  1
  56
 50
359.0
 41
0.8
  7
ITALICS
  0
TEXT
  8
42
  6
CONTINUOUS
  5
7B7
 10
15137.68
 20
49477.46
 30
0.0
 40
5.0
  1
  66
 50
359.0
 41
0.8
  7
ITALICS
  0
TEXT
  8
42
  6
CONTINUOUS
  5
7B9
 10
15137.68
 20
49494.12
 30
0.0
 40
5.0
  1
  74
 50
359.0
 41
0.8
  7
ITALICS
  0
TEXT
  8
42
  6
CONTINUOUS
  5
7BB
 10
15137.68
 20
49512.43
 30
0.0
 40
5.0
  1
  82
 50
359.0
 41
0.8
  7
ITALICS
  0
TEXT
  8
42
  6
CONTINUOUS
  5
7BD
 10
15170.48
 20
49529.47
 30
0.0
 40
5.0
  1
15386
 41
0.8
  7
ITALICS
 72
     2
 11
15189.91
 21
49531.97
 31
0.0
 73
     2
  0
TEXT
  8
42
  6
CONTINUOUS
  5
7BF
 10
15164.22
 20
49191.95
 30
0.0
 40
5.0
  1
 9627
 50
359.0
 41
0.8
  7
ITALICS
 72
     2
 11
15183.88
 21
49194.11
 31
0.0
 73
     2
  0
TEXT
  8
42
  6
CONTINUOUS
  5
7C1
 10
15165.72
 20
49325.93
 30
0.0
 40
5.0
  1
 9693
 50
359.0
 41
0.8
  7
ITALICS
 72
     2
 11
15185.19
 21
49328.09
 31
0.0
 73
     2
  0
TEXT
  8
42
  6
CONTINUOUS
  5
7C4
 10
15167.5
 20
49514.85
 30
0.0
 40
5.0
  1
 9789
 50
359.0
 41
0.8
  7
ITALICS
 72
     2
 11
15186.97
 21
49517.01
 31
0.0
 73
     2
  0
TEXT
  8
42
  6
CONTINUOUS
  5
7C6
 10
15168.42
 20
49212.51
 30
0.0
 40
5.0
  1
  37
 50
359.0
 41
0.8
  7
ITALICS
 72
     2
 11
15184.08
 21
49214.74
 31
0.0
 73
     2
  0
TEXT
  8
42
  6
CONTINUOUS
  5
7C8
 10
15168.82
 20
49231.4
 30
0.0
 40
5.0
  1
  43
 50
359.0
 41
0.8
  7
ITALICS
 72
     2
 11
15184.29
 21
49233.63
 31
0.0
 73
     2
  0
TEXT
  8
42
  6
CONTINUOUS
  5
7CA
 10
15168.78
 20
49250.29
 30
0.0
 40
5.0
  1
  57
 50
359.0
 41
0.8
  7
ITALICS
 72
     2
 11
15184.44
 21
49252.52
 31
0.0
 73
     2
  0
TEXT
  8
42
  6
CONTINUOUS
  5
7CC
 10
15168.99
 20
49269.18
 30
0.0
 40
5.0
  1
  65
 50
359.0
 41
0.8
  7
ITALICS
 72
     2
 11
15184.65
 21
49271.41
 31
0.0
 73
     2
  0
TEXT
  8
42
  6
CONTINUOUS
  5
7CE
 10
15170.09
 20
49288.06
 30
0.0
 40
5.0
  1
  71
 50
359.0
 41
0.8
  7
ITALICS
 72
     2
 11
15184.8
 21
49290.3
 31
0.0
 73
     2
  0
TEXT
  8
42
  6
CONTINUOUS
  5
7D0
 10
15169.54
 20
49306.97
 30
0.0
 40
5.0
  1
  83
 50
359.0
 41
0.8
  7
ITALICS
 72
     2
 11
15185.01
 21
49309.2
 31
0.0
 73
     2
  0
TEXT
  8
42
  6
CONTINUOUS
  5
7D8
 10
15166.63
 20
49345.01
 30
0.0
 40
5.0
  1
 9701
 50
358.74
 41
0.8
  7
ITALICS
 72
     2
 11
15185.35
 21
49347.1
 31
0.0
 73
     2
  0
TEXT
  8
42
  6
CONTINUOUS
  5
7D9
 10
15169.86
 20
49363.83
 30
0.0
 40
5.0
  1
  07
 50
358.74
 41
0.8
  7
ITALICS
 72
     2
 11
15185.53
 21
49365.99
 31
0.0
 73
     2
  0
TEXT
  8
42
  6
CONTINUOUS
  5
7DA
 10
15170.04
 20
49382.73
 30
0.0
 40
5.0
  1
  17
 50
358.74
 41
0.8
  7
ITALICS
 72
     2
 11
15185.71
 21
49384.89
 31
0.0
 73
     2
  0
TEXT
  8
42
  6
CONTINUOUS
  5
7DB
 10
15170.44
 20
49401.62
 30
0.0
 40
5.0
  1
  33
 50
358.74
 41
0.8
  7
ITALICS
 72
     2
 11
15185.92
 21
49403.78
 31
0.0
 73
     2
  0
TEXT
  8
42
  6
CONTINUOUS
  5
7DC
 10
15170.59
 20
49420.51
 30
0.0
 40
5.0
  1
  39
 50
358.74
 41
0.8
  7
ITALICS
 72
     2
 11
15186.07
 21
49422.67
 31
0.0
 73
     2
  0
TEXT
  8
42
  6
CONTINUOUS
  5
7DD
 10
15170.8
 20
49439.4
 30
0.0
 40
5.0
  1
  43
 50
358.74
 41
0.8
  7
ITALICS
 72
     2
 11
15186.28
 21
49441.56
 31
0.0
 73
     2
  0
TEXT
  8
42
  6
CONTINUOUS
  5
7DE
 10
15171.71
 20
49458.27
 30
0.0
 40
5.0
  1
  51
 50
358.74
 41
0.8
  7
ITALICS
 72
     2
 11
15186.43
 21
49460.45
 31
0.0
 73
     2
  0
TEXT
  8
42
  6
CONTINUOUS
  5
7DF
 10
15171.13
 20
49477.19
 30
0.0
 40
5.0
  1
  69
 50
358.74
 41
0.8
  7
ITALICS
 72
     2
 11
15186.61
 21
49479.35
 31
0.0
 73
     2
  0
TEXT
  8
42
  6
CONTINUOUS
  5
7E1
 10
15172.08
 20
49495.88
 30
0.0
 40
5.0
  1
  81
 50
359.0
 41
0.8
  7
ITALICS
 72
     2
 11
15186.79
 21
49498.12
 31
0.0
 73
     2
  0
TEXT
  8
42
  6
CONTINUOUS
  5
7E2
 10
14937.49
 20
49287.7
 30
0.0
 40
5.0
  1
15244
 50
88.74
 41
0.8
  7
ITALICS
 72
     2
 11
14935.42
 21
49307.18
 31
0.0
 73
     2
  0
TEXT
  8
42
  6
CONTINUOUS
  5
7E3
 10
15042.46
 20
49343.53
 30
0.0
 40
5.0
  1
  91
 50
48.0
 41
0.8
  7
ITALICS
  0
TEXT
  8
42
  6
CONTINUOUS
  5
7E4
 10
14936.24
 20
49373.79
 30
0.0
 40
5.0
  1
15242
 50
88.74
 41
0.8
  7
ITALICS
 72
     2
 11
14934.17
 21
49393.27
 31
0.0
 73
     2
  0
TEXT
  8
42
  6
CONTINUOUS
  5
7E5
 10
15039.12
 20
49389.96
 30
0.0
 40
5.0
  1
  90
 50
306.0
 41
0.8
  7
ITALICS
  0
TEXT
  8
42
  6
CONTINUOUS
  5
7E6
 10
15039.12
 20
49389.96
 30
0.0
 40
5.0
  1
  90
 50
306.0
 41
0.8
  7
ITALICS
  0
TEXT
  8
42
  6
CONTINUOUS
  5
7E7
 10
14972.32
 20
49377.5
 30
0.0
 40
5.0
  1
  58
 50
88.74
 41
0.8
  7
ITALICS
 72
     2
 11
14970.16
 21
49392.98
 31
0.0
 73
     2
  0
TEXT
  8
42
  6
CONTINUOUS
  5
7E8
 10
14977.35
 20
49193.21
 30
0.0
 40
5.0
  1
 9633
 50
16.75
 41
0.8
  7
ITALICS
 72
     2
 11
14995.23
 21
49201.2
 31
0.0
 73
     2
  0
TEXT
  8
42
  6
CONTINUOUS
  5
7E9
 10
14949.66
 20
49158.05
 30
0.0
 40
5.0
  1
  61
 50
89.0
 41
0.8
  7
ITALICS
  0
TEXT
  8
42
  6
CONTINUOUS
  5
7EA
 10
15042.35
 20
49152.42
 30
0.0
 40
5.0
  1
 9614
 50
358.0
 41
0.8
  7
ITALICS
  0
TEXT
  8
42
  6
CONTINUOUS
  5
7EB
 10
14959.3
 20
49192.02
 30
0.0
 40
5.0
  1
  49
 50
89.74
 41
0.8
  7
ITALICS
 72
     2
 11
14956.87
 21
49207.46
 31
0.0
 73
     2
  0
TEXT
  8
42
  6
CONTINUOUS
  5
7EC
 10
14970.83
 20
49208.66
 30
0.0
 40
5.0
  1
  41
 50
41.75
 41
0.8
  7
ITALICS
 72
     2
 11
14980.11
 21
49220.29
 31
0.0
 73
     2
  0
TEXT
  8
42
  6
CONTINUOUS
  5
7ED
 10
15027.76
 20
49348.22
 30
0.0
 40
5.0
  1
  83
 50
76.0
 41
0.8
  7
ITALICS
  0
TEXT
  8
42
  6
CONTINUOUS
  5
7EE
 10
14980.76
 20
49470.56
 30
0.0
 40
5.0
  1
  75
 50
46.75
 41
0.8
  7
ITALICS
 72
     2
 11
14989.64
 21
49483.65
 31
0.0
 73
     2
  0
TEXT
  8
42
  6
CONTINUOUS
  5
7EF
 10
14967.45
 20
49157.49
 30
0.0
 40
5.0
  1
15269
 50
89.0
 41
0.8
  7
ITALICS
  0
TEXT
  8
42
  6
CONTINUOUS
  5
7F0
 10
15030.7
 20
49375.13
 30
0.0
 40
5.0
  1
  82
 50
100.74
 41
0.8
  7
ITALICS
 72
     2
 11
15025.37
 21
49389.82
 31
0.0
 73
     2
  0
TEXT
  8
42
  6
CONTINUOUS
  5
7F1
 10
14949.19
 20
49272.75
 30
0.0
 40
5.0
  1
 9678
 50
21.0
 41
0.8
  7
ITALICS
  0
TEXT
  8
42
  6
CONTINUOUS
  5
7F3
 10
14926.34
 20
49517.42
 30
0.0
 40
5.0
  1
 9788
 50
358.0
 41
0.8
  7
ITALICS
  0
TEXT
  8
42
  6
CONTINUOUS
  5
7F4
 10
14914.88
 20
49235.38
 30
0.0
 40
5.0
  1
 9675
 50
10.74
 41
0.8
  7
ITALICS
 72
     2
 11
14933.69
 21
49241.49
 31
0.0
 73
     2
  0
TEXT
  8
42
  6
CONTINUOUS
  5
7F5
 10
14958.41
 20
49510.37
 30
0.0
 40
5.0
  1
15264
 50
89.74
 41
0.8
  7
ITALICS
 72
     2
 11
14956.0
 21
49529.81
 31
0.0
 73
     2
  0
TEXT
  8
42
  6
CONTINUOUS
  5
7F6
 10
15034.77
 20
49495.0
 30
0.0
 40
5.0
  1
 9784
 50
347.0
 41
0.8
  7
ITALICS
  0
TEXT
  8
42
  6
CONTINUOUS
  5
7F7
 10
14967.82
 20
49490.6
 30
0.0
 40
5.0
  1
 9783
 50
19.74
 41
0.8
  7
ITALICS
 72
     2
 11
14985.26
 21
49499.52
 31
0.0
 73
     2
  0
LINE
  8
32
  6
CONTINUOUS
  5
7F8
 10
15202.75
 20
49605.32
 30
0.0
 11
15203.51
 21
49689.7
 31
0.0
  0
TEXT
  8
42
  6
CONTINUOUS
  5
7F9
 10
15019.25
 20
49477.92
 30
0.0
 40
5.0
  1
  70
 50
302.0
 41
0.8
  7
ITALICS
  0
TEXT
  8
42
  6
CONTINUOUS
  5
7FA
 10
15044.44
 20
49226.09
 30
0.0
 40
5.0
  1
  86
 50
325.0
 41
0.8
  7
ITALICS
  0
TEXT
  8
42
  6
CONTINUOUS
  5
7FB
 10
15048.83
 20
49242.03
 30
0.0
 40
5.0
  1
  94
 50
9.0
 41
0.8
  7
ITALICS
  0
TEXT
  8
42
  6
CONTINUOUS
  5
7FC
 10
15049.59
 20
49330.93
 30
0.0
 40
5.0
  1
  99
 50
22.0
 41
0.8
  7
ITALICS
  0
TEXT
  8
42
  6
CONTINUOUS
  5
7FD
 10
15049.08
 20
49402.65
 30
0.0
 40
5.0
  1
  98
 50
334.0
 41
0.8
  7
ITALICS
  0
TEXT
  8
42
  6
CONTINUOUS
  5
7FE
 10
15051.35
 20
49420.55
 30
0.0
 40
5.0
  1
  93
 50
23.0
 41
0.8
  7
ITALICS
  0
TEXT
  8
42
  6
CONTINUOUS
  5
7FF
 10
15009.16
 20
49435.16
 30
0.0
 40
5.0
  1
  71
 50
88.0
 41
0.8
  7
ITALICS
  0
TEXT
  8
42
  6
CONTINUOUS
  5
800
 10
15028.17
 20
49439.57
 30
0.0
 40
5.0
  1
  79
 50
74.0
 41
0.8
  7
ITALICS
  0
TEXT
  8
42
  6
CONTINUOUS
  5
801
 10
15043.18
 20
49434.0
 30
0.0
 40
5.0
  1
  87
 50
48.0
 41
0.8
  7
ITALICS
  0
TEXT
  8
42
  6
CONTINUOUS
  5
802
 10
14940.86
 20
49464.88
 30
0.0
 40
5.0
  1
 9764
 50
358.0
 41
0.8
  7
ITALICS
  0
TEXT
  8
42
  6
CONTINUOUS
  5
803
 10
14972.42
 20
49265.73
 30
0.0
 40
5.0
  1
  70
 50
45.0
 41
0.8
  7
ITALICS
  0
TEXT
  8
42
  6
CONTINUOUS
  5
804
 10
14941.1
 20
49497.93
 30
0.0
 40
5.0
  1
 9780
 50
358.0
 41
0.8
  7
ITALICS
  0
TEXT
  8
42
  6
CONTINUOUS
  5
805
 10
14919.46
 20
49213.47
 30
0.0
 40
5.0
  1
  65
 50
24.75
 41
0.8
  7
ITALICS
 72
     2
 11
14932.6
 21
49222.28
 31
0.0
 73
     2
  0
TEXT
  8
42
  6
CONTINUOUS
  5
806
 10
14940.98
 20
49481.41
 30
0.0
 40
5.0
  1
  72
 50
358.0
 41
0.8
  7
ITALICS
  0
TEXT
  8
42
  6
CONTINUOUS
  5
807
 10
15038.43
 20
49477.73
 30
0.0
 40
5.0
  1
  78
 50
323.0
 41
0.8
  7
ITALICS
  0
TEXT
  8
42
  6
CONTINUOUS
  5
808
 10
15043.17
 20
49189.62
 30
0.0
 40
5.0
  1
( 9630)
 50
5.0
 41
0.8
  7
ITALICS
  0
TEXT
  8
42
  6
CONTINUOUS
  5
809
 10
15028.94
 20
49261.77
 30
0.0
 40
5.0
  1
(15289)
 50
73.0
 41
0.8
  7
ITALICS
  0
TEXT
  8
42
  6
CONTINUOUS
  5
80B
 10
15007.29
 20
49250.74
 30
0.0
 40
5.0
  1
 9654
 50
55.0
 41
0.8
  7
ITALICS
  0
TEXT
  8
42
  6
CONTINUOUS
  5
80D
 10
15037.03
 20
49520.93
 30
0.0
 40
5.0
  1
( 9790)
 50
358.0
 41
0.8
  7
ITALICS
  0
TEXT
  8
42
  6
CONTINUOUS
  5
80E
 10
14995.14
 20
49510.15
 30
0.0
 40
5.0
  1
15280
 50
89.74
 41
0.8
  7
ITALICS
 72
     2
 11
14992.73
 21
49529.59
 31
0.0
 73
     2
  0
TEXT
  8
42
  6
CONTINUOUS
  5
80F
 10
14977.76
 20
49514.6
 30
0.0
 40
5.0
  1
  72
 50
89.74
 41
0.8
  7
ITALICS
 72
     2
 11
14975.33
 21
49530.04
 31
0.0
 73
     2
  0
TEXT
  8
42
  6
CONTINUOUS
  5
810
 10
14982.32
 20
49290.49
 30
0.0
 40
5.0
  1
  62
 50
88.74
 41
0.8
  7
ITALICS
 72
     2
 11
14980.16
 21
49305.97
 31
0.0
 73
     2
  0
TEXT
  8
42
  6
CONTINUOUS
  5
811
 10
15021.36
 20
49300.01
 30
0.0
 40
5.0
  1
  76
 50
278.0
 41
0.8
  7
ITALICS
  0
TEXT
  8
42
  6
CONTINUOUS
  5
812
 10
15038.1
 20
49300.42
 30
0.0
 40
5.0
  1
  84
 50
308.0
 41
0.8
  7
ITALICS
  0
TEXT
  8
42
  6
CONTINUOUS
  5
813
 10
15003.93
 20
49462.28
 30
0.0
 40
5.0
  1
  65
 50
80.74
 41
0.8
  7
ITALICS
 72
     2
 11
15003.98
 21
49478.1
 31
0.0
 73
     2
  0
LINE
  8
32
  6
CONTINUOUS
  5
814
 10
15037.85
 20
49245.12
 30
0.0
 11
15066.99
 21
49261.93
 31
0.0
  0
TEXT
  8
42
  6
CONTINUOUS
  5
816
 10
15312.82
 20
49249.27
 30
0.0
 40
5.0
  1
15424
 50
2.0
 41
0.8
  7
ITALICS
  0
TEXT
  8
42
  6
CONTINUOUS
  5
818
 10
15138.61
 20
49420.15
 30
0.0
 40
5.0
  1
  38
 50
359.0
 41
0.8
  7
ITALICS
  0
TEXT
  8
42
  6
CONTINUOUS
  5
819
 10
14990.83
 20
49345.45
 30
0.0
 40
5.0
  1
  67
 50
88.0
 41
0.8
  7
ITALICS
  0
LINE
  8
32
  6
CONTINUOUS
  5
81A
 10
14819.66
 20
49450.86
 30
0.0
 11
14905.85
 21
49451.76
 31
0.0
  0
TEXT
  8
42
  6
CONTINUOUS
  5
81B
 10
15071.21
 20
49440.98
 30
0.0
 40
5.0
  1
  47
 50
358.74
 41
0.8
  7
ITALICS
 72
     2
 11
15086.88
 21
49443.14
 31
0.0
 73
     2
  0
TEXT
  8
42
  6
CONTINUOUS
  5
81D
 10
14872.46
 20
49525.56
 30
0.0
 40
5.0
  1
 9785
 50
358.74
 41
0.8
  7
ITALICS
 72
     2
 11
14892.13
 21
49527.63
 31
0.0
 73
     2
  0
TEXT
  8
42
  6
CONTINUOUS
  5
81F
 10
14871.67
 20
49488.92
 30
0.0
 40
5.0
  1
 9771
 50
358.74
 41
0.8
  7
ITALICS
 72
     2
 11
14890.39
 21
49491.01
 31
0.0
 73
     2
  0
LINE
  8
32
  6
CONTINUOUS
  5
820
 10
15018.27
 20
49492.15
 30
0.0
 11
15040.46
 21
49471.69
 31
0.0
  0
LINE
  8
32
  6
CONTINUOUS
  5
821
 10
15044.24
 20
49458.65
 30
0.0
 11
15040.46
 21
49471.69
 31
0.0
  0
POLYLINE
  8
31
  6
CONTINUOUS
  5
822
 66
     1
 10
0.0
 20
0.0
 30
0.0
 40
0.01
 41
0.01
  0
VERTEX
  8
31
  5
823
 10
14905.85
 20
49451.76
 30
0.0
  0
VERTEX
  8
31
  5
824
 10
14905.02
 20
49342.25
 30
0.0
  0
SEQEND
  8
0
  5
825
  0
TEXT
  8
42
  6
CONTINUOUS
  5
827
 10
14870.76
 20
49395.34
 30
0.0
 40
5.0
  1
 9727
 50
358.74
 41
0.8
  7
ITALICS
 72
     2
 11
14890.43
 21
49397.41
 31
0.0
 73
     2
  0
POLYLINE
  8
31
  6
CONTINUOUS
  5
828
 66
     1
 10
0.0
 20
0.0
 30
0.0
 40
0.01
 41
0.01
  0
VERTEX
  8
31
  6
CONTINUOUS
  5
829
 10
14914.48
 20
49266.27
 30
0.0
 42
0.15
  0
VERTEX
  8
31
  6
CONTINUOUS
  5
82A
 10
14940.65
 20
49245.97
 30
0.0
 42
0.15
  0
SEQEND
  8
0
  5
82B
  0
POLYLINE
  8
31
  6
CONTINUOUS
  5
82C
 66
     1
 10
0.0
 20
0.0
 30
0.0
 40
0.01
 41
0.01
  0
VERTEX
  8
31
  6
CONTINUOUS
  5
82D
 10
14904.7
 20
49297.96
 30
0.0
 42
0.15
  0
VERTEX
  8
31
  6
CONTINUOUS
  5
82E
 10
14914.48
 20
49266.27
 30
0.0
 42
0.15
  0
SEQEND
  8
0
  5
82F
  0
POLYLINE
  8
31
  6
CONTINUOUS
  5
830
 66
     1
 10
0.0
 20
0.0
 30
0.0
 40
0.01
 41
0.01
  0
VERTEX
  8
31
  5
831
 10
14904.7
 20
49297.96
 30
0.0
  0
VERTEX
  8
31
  5
832
 10
14905.02
 20
49342.25
 30
0.0
  0
SEQEND
  8
0
  5
833
  0
LINE
  8
32
  6
CONTINUOUS
  5
834
 10
15301.14
 20
49183.98
 30
0.0
 11
15300.68
 21
49148.7
 31
0.0
  0
POLYLINE
  8
31
  6
CONTINUOUS
  5
835
 66
     1
 10
0.0
 20
0.0
 30
0.0
 40
0.01
 41
0.01
  0
VERTEX
  8
31
  5
836
 10
15300.68
 20
49148.7
 30
0.0
  0
VERTEX
  8
31
  5
837
 10
15300.67
 20
49147.39
 30
0.0
  0
SEQEND
  8
0
  5
838
  0
POLYLINE
  8
31
  6
CONTINUOUS
  5
839
 66
     1
 10
0.0
 20
0.0
 30
0.0
 40
0.01
 41
0.01
  0
VERTEX
  8
31
  5
83A
 10
15280.12
 20
49230.16
 30
0.0
  0
VERTEX
  8
31
  5
83B
 10
15282.16
 20
49230.18
 30
0.0
  0
SEQEND
  8
0
  5
83C
  0
POLYLINE
  8
31
  6
CONTINUOUS
  5
83D
 66
     1
 10
0.0
 20
0.0
 30
0.0
 40
0.01
 41
0.01
  0
VERTEX
  8
31
  5
83E
 10
15279.18
 20
49148.51
 30
0.0
  0
VERTEX
  8
31
  5
83F
 10
15300.68
 20
49148.7
 30
0.0
  0
SEQEND
  8
0
  5
840
  0
POLYLINE
  8
31
  6
CONTINUOUS
  5
841
 66
     1
 10
0.0
 20
0.0
 30
0.0
 40
0.01
 41
0.01
  0
VERTEX
  8
31
  5
842
 10
15279.59
 20
49183.8
 30
0.0
  0
VERTEX
  8
31
  5
843
 10
15301.14
 20
49183.98
 30
0.0
  0
SEQEND
  8
0
  5
844
  0
POLYLINE
  8
31
  6
CONTINUOUS
  5
845
 66
     1
 10
0.0
 20
0.0
 30
0.0
 40
0.01
 41
0.01
  0
VERTEX
  8
31
  5
846
 10
15279.66
 20
49189.8
 30
0.0
  0
VERTEX
  8
31
  5
847
 10
15301.22
 20
49189.99
 30
0.0
  0
SEQEND
  8
0
  5
848
  0
POLYLINE
  8
31
  6
CONTINUOUS
  5
849
 66
     1
 10
0.0
 20
0.0
 30
0.0
 40
0.01
 41
0.01
  0
VERTEX
  8
31
  6
CONTINUOUS
  5
84A
 10
15282.16
 20
49230.18
 30
0.0
 42
0.41
  0
VERTEX
  8
31
  6
CONTINUOUS
  5
84B
 10
15301.66
 20
49227.24
 30
0.0
 42
0.41
  0
SEQEND
  8
0
  5
84C
  0
TEXT
  8
42
  6
CONTINUOUS
  5
84E
 10
15271.62
 20
49199.58
 30
0.0
 40
5.0
  1
  06
 50
89.74
 41
0.8
  7
ITALICS
 72
     2
 11
15269.19
 21
49215.02
 31
0.0
 73
     2
  0
TEXT
  8
42
  6
CONTINUOUS
  5
84F
 10
15306.11
 20
49214.91
 30
0.0
 40
5.0
  1
  16
 50
290.0
 41
0.8
  7
ITALICS
  0
TEXT
  8
42
  6
CONTINUOUS
  5
850
 10
15294.02
 20
49196.31
 30
0.0
 40
5.0
  1
  10
 50
90.78
 41
0.8
  7
ITALICS
 72
     2
 11
15291.31
 21
49211.7
 31
0.0
 73
     2
  0
LINE
  8
32
  6
CONTINUOUS
  5
851
 10
14819.91
 20
49341.2
 30
0.0
 11
14905.02
 21
49342.25
 31
0.0
  0
LINE
  8
32
  6
CONTINUOUS
  5
852
 10
14886.31
 20
49241.43
 30
0.0
 11
14819.18
 21
49240.62
 31
0.0
  0
TEXT
  8
42
  6
CONTINUOUS
  5
854
 10
15004.65
 20
49285.22
 30
0.0
 40
5.0
  1
15268
 50
88.74
 41
0.8
  7
ITALICS
 72
     2
 11
15002.58
 21
49304.7
 31
0.0
 73
     2
  0
TEXT
  8
42
  6
CONTINUOUS
  5
855
 10
14993.01
 20
49260.87
 30
0.0
 40
5.0
  1
(    62)
 50
61.0
 41
0.8
  7
ITALICS
  0
TEXT
  8
42
  6
CONTINUOUS
  5
856
 10
14871.15
 20
49291.21
 30
0.0
 40
5.0
  1
 9699
 50
1.44
 41
0.8
  7
ITALICS
 72
     2
 11
14890.51
 21
49294.2
 31
0.0
 73
     2
  0
LINE
  8
3
  6
CONTINUOUS
 62
    14
  5
857
 10
14685.2
 20
49143.05
 30
0.0
 11
14749.89
 21
49143.89
 31
0.0
  0
POLYLINE
  8
4
  6
PHANTOM
 62
    14
  5
858
 66
     1
 10
0.0
 20
0.0
 30
0.0
 40
10.0
 41
10.0
  0
VERTEX
  8
4
 62
    14
  5
859
 10
14752.01
 20
49115.7
 30
0.0
  0
VERTEX
  8
4
 62
    14
  5
85A
 10
14751.92
 20
49080.92
 30
0.0
  0
SEQEND
  8
0
 62
    14
  5
85B
  0
POLYLINE
  8
4
  6
PHANTOM
 62
    14
  5
85C
 66
     1
 10
0.0
 20
0.0
 30
0.0
 40
10.0
 41
10.0
  0
VERTEX
  8
4
 62
    14
  5
85D
 10
14751.92
 20
49080.92
 30
0.0
  0
VERTEX
  8
4
 62
    14
  5
85E
 10
14755.12
 20
49080.92
 30
0.0
  0
SEQEND
  8
0
 62
    14
  5
85F
  0
POLYLINE
  8
4
  6
PHANTOM
 62
    14
  5
860
 66
     1
 10
0.0
 20
0.0
 30
0.0
 40
10.0
 41
10.0
  0
VERTEX
  8
4
 62
    14
  5
861
 10
14755.12
 20
49080.92
 30
0.0
  0
VERTEX
  8
4
 62
    14
  5
862
 10
14755.0
 20
49075.5
 30
0.0
  0
SEQEND
  8
0
 62
    14
  5
863
  0
POLYLINE
  8
4
  6
PHANTOM
 62
    14
  5
864
 66
     1
 10
0.0
 20
0.0
 30
0.0
 40
10.0
 41
10.0
  0
VERTEX
  8
4
 62
    14
  5
865
 10
14851.04
 20
49081.49
 30
0.0
  0
VERTEX
  8
4
 62
    14
  5
866
 10
14893.73
 20
49082.01
 30
0.0
  0
SEQEND
  8
0
 62
    14
  5
867
  0
POLYLINE
  8
4
  6
PHANTOM
 62
    14
  5
868
 66
     1
 10
0.0
 20
0.0
 30
0.0
 40
10.0
 41
10.0
  0
VERTEX
  8
4
 62
    14
  5
869
 10
14893.73
 20
49082.01
 30
0.0
  0
VERTEX
  8
4
 62
    14
  5
86A
 10
14910.23
 20
49082.13
 30
0.0
  0
SEQEND
  8
0
 62
    14
  5
86B
  0
POLYLINE
  8
4
  6
PHANTOM
 62
    14
  5
86C
 66
     1
 10
0.0
 20
0.0
 30
0.0
 40
10.0
 41
10.0
  0
VERTEX
  8
4
 62
    14
  5
86D
 10
14910.23
 20
49082.13
 30
0.0
  0
VERTEX
  8
4
 62
    14
  5
86E
 10
15018.99
 20
49083.35
 30
0.0
  0
SEQEND
  8
0
 62
    14
  5
86F
  0
POLYLINE
  8
4
  6
PHANTOM
 62
    14
  5
870
 66
     1
 10
0.0
 20
0.0
 30
0.0
 40
10.0
 41
10.0
  0
VERTEX
  8
4
 62
    14
  5
871
 10
15018.99
 20
49083.35
 30
0.0
  0
VERTEX
  8
4
 62
    14
  5
872
 10
15018.94
 20
49087.56
 30
0.0
  0
SEQEND
  8
0
 62
    14
  5
873
  0
POLYLINE
  8
4
  6
PHANTOM
 62
    14
  5
874
 66
     1
 10
0.0
 20
0.0
 30
0.0
 40
10.0
 41
10.0
  0
VERTEX
  8
4
 62
    14
  5
875
 10
15018.94
 20
49087.56
 30
0.0
  0
VERTEX
  8
4
 62
    14
  5
876
 10
15039.06
 20
49087.8
 30
0.0
  0
SEQEND
  8
0
 62
    14
  5
877
  0
POLYLINE
  8
4
  6
PHANTOM
 62
    14
  5
878
 66
     1
 10
0.0
 20
0.0
 30
0.0
 40
10.0
 41
10.0
  0
VERTEX
  8
4
 62
    14
  5
879
 10
15039.06
 20
49087.8
 30
0.0
  0
VERTEX
  8
4
 62
    14
  5
87A
 10
15039.11
 20
49083.62
 30
0.0
  0
SEQEND
  8
0
 62
    14
  5
87B
  0
POLYLINE
  8
4
  6
PHANTOM
 62
    14
  5
87C
 66
     1
 10
0.0
 20
0.0
 30
0.0
 40
10.0
 41
10.0
  0
VERTEX
  8
4
 62
    14
  5
87D
 10
15039.11
 20
49083.62
 30
0.0
  0
VERTEX
  8
4
 62
    14
  5
87E
 10
15095.73
 20
49084.31
 30
0.0
  0
SEQEND
  8
0
 62
    14
  5
87F
  0
POLYLINE
  8
4
  6
PHANTOM
 62
    14
  5
880
 66
     1
 10
0.0
 20
0.0
 30
0.0
 40
10.0
 41
10.0
  0
VERTEX
  8
4
 62
    14
  5
881
 10
15095.73
 20
49084.31
 30
0.0
  0
VERTEX
  8
4
 62
    14
  5
882
 10
15095.4
 20
49120.83
 30
0.0
  0
SEQEND
  8
0
 62
    14
  5
883
  0
POLYLINE
  8
4
  6
PHANTOM
 62
    14
  5
884
 66
     1
 10
0.0
 20
0.0
 30
0.0
 40
10.0
 41
10.0
  0
VERTEX
  8
4
 62
    14
  5
885
 10
15095.4
 20
49120.83
 30
0.0
  0
VERTEX
  8
4
 62
    14
  5
886
 10
15111.9
 20
49121.04
 30
0.0
  0
SEQEND
  8
0
 62
    14
  5
887
  0
POLYLINE
  8
4
  6
PHANTOM
 62
    14
  5
888
 66
     1
 10
0.0
 20
0.0
 30
0.0
 40
10.0
 41
10.0
  0
VERTEX
  8
4
 62
    14
  5
889
 10
15111.9
 20
49121.04
 30
0.0
  0
VERTEX
  8
4
 62
    14
  5
88A
 10
15112.21
 20
49086.31
 30
0.0
  0
SEQEND
  8
0
 62
    14
  5
88B
  0
POLYLINE
  8
4
  6
PHANTOM
 62
    14
  5
88C
 66
     1
 10
0.0
 20
0.0
 30
0.0
 40
10.0
 41
10.0
  0
VERTEX
  8
4
 62
    14
  5
88D
 10
15112.21
 20
49086.31
 30
0.0
  0
VERTEX
  8
4
 62
    14
  5
88E
 10
15152.69
 20
49091.04
 30
0.0
  0
SEQEND
  8
0
 62
    14
  5
88F
  0
POLYLINE
  8
4
  6
PHANTOM
 62
    14
  5
890
 66
     1
 10
0.0
 20
0.0
 30
0.0
 40
10.0
 41
10.0
  0
VERTEX
  8
4
 62
    14
  5
891
 10
15152.69
 20
49091.04
 30
0.0
  0
VERTEX
  8
4
 62
    14
  5
892
 10
15152.41
 20
49121.52
 30
0.0
  0
SEQEND
  8
0
 62
    14
  5
893
  0
POLYLINE
  8
4
  6
PHANTOM
 62
    14
  5
894
 66
     1
 10
0.0
 20
0.0
 30
0.0
 40
10.0
 41
10.0
  0
VERTEX
  8
4
 62
    14
  5
895
 10
15152.41
 20
49121.52
 30
0.0
  0
VERTEX
  8
4
 62
    14
  5
896
 10
15235.31
 20
49122.4
 30
0.0
  0
SEQEND
  8
0
 62
    14
  5
897
  0
POLYLINE
  8
4
  6
PHANTOM
 62
    14
  5
898
 66
     1
 10
0.0
 20
0.0
 30
0.0
 40
10.0
 41
10.0
  0
VERTEX
  8
4
 62
    14
  5
899
 10
15235.31
 20
49122.4
 30
0.0
  0
VERTEX
  8
4
 62
    14
  5
89A
 10
15235.65
 20
49075.5
 30
0.0
  0
SEQEND
  8
0
 62
    14
  5
89B
  0
POLYLINE
  8
4
  6
PHANTOM
 62
    14
  5
89C
 66
     1
 10
0.0
 20
0.0
 30
0.0
 40
10.0
 41
10.0
  0
VERTEX
  8
4
 62
    14
  5
89D
 10
14851.13
 20
49075.5
 30
0.0
  0
VERTEX
  8
4
 62
    14
  5
89E
 10
14851.04
 20
49081.49
 30
0.0
  0
SEQEND
  8
0
 62
    14
  5
89F
  0
POLYLINE
  8
4
  6
PHANTOM
 62
    14
  5
8A0
 66
     1
 10
0.0
 20
0.0
 30
0.0
 40
10.0
 41
10.0
  0
VERTEX
  8
4
 62
    14
  5
8A1
 10
15235.31
 20
49122.4
 30
0.0
  0
VERTEX
  8
4
 62
    14
  5
8A2
 10
15320.05
 20
49123.23
 30
0.0
  0
SEQEND
  8
0
 62
    14
  5
8A3
  0
POLYLINE
  8
4
  6
PHANTOM
 62
    14
  5
8A4
 66
     1
 10
0.0
 20
0.0
 30
0.0
 40
10.0
 41
10.0
  0
VERTEX
  8
4
 62
    14
  5
8A5
 10
15320.05
 20
49123.23
 30
0.0
  0
VERTEX
  8
4
 62
    14
  5
8A6
 10
15320.35
 20
49088.79
 30
0.0
  0
SEQEND
  8
0
 62
    14
  5
8A7
  0
POLYLINE
  8
4
  6
PHANTOM
 62
    14
  5
8A8
 66
     1
 10
0.0
 20
0.0
 30
0.0
 40
10.0
 41
10.0
  0
VERTEX
  8
4
 62
    14
  5
8A9
 10
15320.35
 20
49088.79
 30
0.0
  0
VERTEX
  8
4
 62
    14
  5
8AA
 10
15331.8
 20
49088.9
 30
0.0
  0
SEQEND
  8
0
 62
    14
  5
8AB
  0
POLYLINE
  8
40
  6
PHANTOM
 62
    14
  5
8B6
 66
     1
 10
0.0
 20
0.0
 30
0.0
 40
10.0
 41
10.0
  0
VERTEX
  8
40
 62
    14
  5
8B7
 10
14685.2
 20
49143.05
 30
0.0
  0
VERTEX
  8
40
 62
    14
  5
8B8
 10
14749.89
 20
49143.89
 30
0.0
  0
SEQEND
  8
0
 62
    14
  5
8B9
  0
POLYLINE
  8
40
  6
PHANTOM
 62
    14
  5
8BA
 66
     1
 10
0.0
 20
0.0
 30
0.0
 40
10.0
 41
10.0
  0
VERTEX
  8
40
 62
    14
  5
8BB
 10
14749.89
 20
49143.89
 30
0.0
  0
VERTEX
  8
40
 62
    14
  5
8BC
 10
14789.95
 20
49143.91
 30
0.0
  0
SEQEND
  8
0
 62
    14
  5
8BD
  0
POLYLINE
  8
40
  6
PHANTOM
 62
    14
  5
8BE
 66
     1
 10
0.0
 20
0.0
 30
0.0
 40
10.0
 41
10.0
  0
VERTEX
  8
40
 62
    14
  5
8BF
 10
14685.2
 20
49573.77
 30
0.0
  0
VERTEX
  8
40
 62
    14
  5
8C0
 10
14794.59
 20
49573.77
 30
0.0
  0
SEQEND
  8
0
 62
    14
  5
8C1
  0
LINE
  8
3
  6
CONTINUOUS
 62
    14
  5
8C2
 10
14749.89
 20
49143.89
 30
0.0
 11
14789.95
 21
49143.91
 31
0.0
  0
LINE
  8
3
  6
CONTINUOUS
 62
    14
  5
8C3
 10
14685.2
 20
49573.77
 30
0.0
 11
14794.59
 21
49573.77
 31
0.0
  0
LINE
  8
3
  6
CONTINUOUS
 62
    14
  5
8C4
 10
14794.59
 20
49573.77
 30
0.0
 11
14794.52
 21
49564.82
 31
0.0
  0
POLYLINE
  8
5
 62
    14
  5
8C5
 66
     1
 10
0.0
 20
0.0
 30
0.0
 40
10.0
 41
10.0
  0
VERTEX
  8
5
 62
    14
  5
8C6
 10
14685.2
 20
49494.35
 30
0.0
  0
VERTEX
  8
5
 62
    14
  5
8C7
 10
14727.92
 20
49494.33
 30
0.0
  0
SEQEND
  8
0
 62
    14
  5
8C8
  0
POLYLINE
  8
5
 62
    14
  5
8C9
 66
     1
 10
0.0
 20
0.0
 30
0.0
 40
10.0
 41
10.0
  0
VERTEX
  8
5
 62
    14
  5
8CA
 10
14727.92
 20
49494.33
 30
0.0
  0
VERTEX
  8
5
 62
    14
  5
8CB
 10
14728.23
 20
49522.98
 30
0.0
  0
SEQEND
  8
0
 62
    14
  5
8CC
  0
POLYLINE
  8
5
 62
    14
  5
8CD
 66
     1
 10
0.0
 20
0.0
 30
0.0
 40
10.0
 41
10.0
  0
VERTEX
  8
5
 62
    14
  5
8CE
 10
14728.23
 20
49522.98
 30
0.0
  0
VERTEX
  8
5
 62
    14
  5
8CF
 10
14792.53
 20
49522.96
 30
0.0
  0
SEQEND
  8
0
 62
    14
  5
8D0
  0
POLYLINE
  8
4
  6
PHANTOM
 62
    14
  5
8D1
 66
     1
 10
0.0
 20
0.0
 30
0.0
 40
10.0
 41
10.0
  0
VERTEX
  8
4
 62
    14
  5
8D2
 10
14792.53
 20
49522.96
 30
0.0
  0
VERTEX
  8
4
 62
    14
  5
8D3
 10
14795.56
 20
49519.91
 30
0.0
  0
SEQEND
  8
0
 62
    14
  5
8D4
  0
POLYLINE
  8
5
 62
    14
  5
8D5
 66
     1
 10
0.0
 20
0.0
 30
0.0
 40
10.0
 41
10.0
  0
VERTEX
  8
5
 62
    14
  5
8D6
 10
14795.56
 20
49519.91
 30
0.0
  0
VERTEX
  8
5
 62
    14
  5
8D7
 10
14794.4
 20
49360.17
 30
0.0
  0
SEQEND
  8
0
 62
    14
  5
8D8
  0
POLYLINE
  8
5
 62
    14
  5
8D9
 66
     1
 10
0.0
 20
0.0
 30
0.0
 40
10.0
 41
10.0
  0
VERTEX
  8
5
 62
    14
  5
8DA
 10
14794.4
 20
49360.17
 30
0.0
  0
VERTEX
  8
5
 62
    14
  5
8DB
 10
14793.49
 20
49235.57
 30
0.0
  0
SEQEND
  8
0
 62
    14
  5
8DC
  0
POLYLINE
  8
5
 62
    14
  5
8DD
 66
     1
 10
0.0
 20
0.0
 30
0.0
 40
10.0
 41
10.0
  0
VERTEX
  8
5
 62
    14
  5
8DE
 10
14793.49
 20
49235.57
 30
0.0
  0
VERTEX
  8
5
 62
    14
  5
8DF
 10
14791.66
 20
49235.57
 30
0.0
  0
SEQEND
  8
0
 62
    14
  5
8E0
  0
POLYLINE
  8
5
 62
    14
  5
8E1
 66
     1
 10
0.0
 20
0.0
 30
0.0
 40
10.0
 41
10.0
  0
VERTEX
  8
5
 62
    14
  5
8E2
 10
14791.66
 20
49235.57
 30
0.0
  0
VERTEX
  8
5
 62
    14
  5
8E3
 10
14791.0
 20
49144.95
 30
0.0
  0
SEQEND
  8
0
 62
    14
  5
8E4
  0
POLYLINE
  8
4
  6
PHANTOM
 62
    14
  5
8E5
 66
     1
 10
0.0
 20
0.0
 30
0.0
 40
10.0
 41
10.0
  0
VERTEX
  8
4
 62
    14
  5
8E6
 10
14791.0
 20
49144.95
 30
0.0
  0
VERTEX
  8
4
 62
    14
  5
8E7
 10
14789.95
 20
49143.91
 30
0.0
  0
SEQEND
  8
0
 62
    14
  5
8E8
  0
POLYLINE
  8
22
  6
CONTINUOUS
 62
    10
  5
8EA
 66
     1
 10
0.0
 20
0.0
 30
0.0
 40
0.01
 41
0.01
  0
VERTEX
  8
22
  6
CONTINUOUS
 62
    10
  5
8EB
 10
14685.2
 20
49133.34
 30
0.0
  0
VERTEX
  8
22
  6
CONTINUOUS
 62
    10
  5
8EC
 10
14689.6
 20
49128.62
 30
0.0
  0
VERTEX
  8
22
  6
CONTINUOUS
 62
    10
  5
8ED
 10
14685.2
 20
49123.9
 30
0.0
  0
SEQEND
  8
0
 62
    10
  5
8EE
  0
POLYLINE
  8
40
  6
PHANTOM
 62
    14
  5
8F8
 66
     1
 10
0.0
 20
0.0
 30
0.0
 40
10.0
 41
10.0
  0
VERTEX
  8
40
 62
    14
  5
8F9
 10
14789.95
 20
49143.91
 30
0.0
  0
VERTEX
  8
40
 62
    14
  5
8FA
 10
14817.22
 20
49146.94
 30
0.0
  0
SEQEND
  8
0
 62
    14
  5
8FB
  0
POLYLINE
  8
40
  6
PHANTOM
 62
    14
  5
8FC
 66
     1
 10
0.0
 20
0.0
 30
0.0
 40
10.0
 41
10.0
  0
VERTEX
  8
40
 62
    14
  5
8FD
 10
14817.22
 20
49146.94
 30
0.0
  0
VERTEX
  8
40
 62
    14
  5
8FE
 10
14817.88
 20
49240.6
 30
0.0
  0
SEQEND
  8
0
 62
    14
  5
8FF
  0
POLYLINE
  8
40
  6
PHANTOM
 62
    14
  5
900
 66
     1
 10
0.0
 20
0.0
 30
0.0
 40
10.0
 41
10.0
  0
VERTEX
  8
40
 62
    14
  5
901
 10
14817.88
 20
49240.6
 30
0.0
  0
VERTEX
  8
40
 62
    14
  5
902
 10
14860.11
 20
49241.12
 30
0.0
  0
SEQEND
  8
0
 62
    14
  5
903
  0
POLYLINE
  8
40
  6
PHANTOM
 62
    14
  5
904
 66
     1
 10
0.0
 20
0.0
 30
0.0
 40
10.0
 41
10.0
  0
VERTEX
  8
40
 62
    14
  5
905
 10
14860.11
 20
49241.12
 30
0.0
  0
VERTEX
  8
40
 62
    14
  5
906
 10
14914.3
 20
49241.77
 30
0.0
  0
SEQEND
  8
0
 62
    14
  5
907
  0
POLYLINE
  8
40
  6
PHANTOM
 62
    14
  5
908
 66
     1
 10
0.0
 20
0.0
 30
0.0
 40
10.0
 41
10.0
  0
VERTEX
  8
40
 62
    14
  5
909
 10
14914.3
 20
49241.77
 30
0.0
  0
VERTEX
  8
40
 62
    14
  5
90A
 10
14914.48
 20
49266.27
 30
0.0
  0
SEQEND
  8
0
 62
    14
  5
90B
  0
POLYLINE
  8
40
  6
PHANTOM
 62
    14
  5
90C
 66
     1
 10
0.0
 20
0.0
 30
0.0
 40
10.0
 41
10.0
  0
VERTEX
  8
40
 62
    14
  5
90D
 10
14914.48
 20
49266.27
 30
0.0
  0
VERTEX
  8
40
 62
    14
  5
90E
 10
14927.26
 20
49284.54
 30
0.0
  0
SEQEND
  8
0
 62
    14
  5
90F
  0
POLYLINE
  8
40
  6
PHANTOM
 62
    14
  5
910
 66
     1
 10
0.0
 20
0.0
 30
0.0
 40
10.0
 41
10.0
  0
VERTEX
  8
40
 62
    14
  5
911
 10
14927.26
 20
49284.54
 30
0.0
  0
VERTEX
  8
40
 62
    14
  5
912
 10
14946.37
 20
49286.2
 30
0.0
  0
SEQEND
  8
0
 62
    14
  5
913
  0
POLYLINE
  8
40
  6
PHANTOM
 62
    14
  5
914
 66
     1
 10
0.0
 20
0.0
 30
0.0
 40
10.0
 41
10.0
  0
VERTEX
  8
40
 62
    14
  5
915
 10
14946.37
 20
49286.2
 30
0.0
  0
VERTEX
  8
40
 62
    14
  5
916
 10
14969.09
 20
49288.17
 30
0.0
  0
SEQEND
  8
0
 62
    14
  5
917
  0
POLYLINE
  8
40
  6
PHANTOM
 62
    14
  5
918
 66
     1
 10
0.0
 20
0.0
 30
0.0
 40
10.0
 41
10.0
  0
VERTEX
  8
40
 62
    14
  5
919
 10
14969.09
 20
49288.17
 30
0.0
  0
VERTEX
  8
40
 62
    14
  5
91A
 10
14991.5
 20
49285.17
 30
0.0
  0
SEQEND
  8
0
 62
    14
  5
91B
  0
POLYLINE
  8
40
  6
PHANTOM
 62
    14
  5
91C
 66
     1
 10
0.0
 20
0.0
 30
0.0
 40
10.0
 41
10.0
  0
VERTEX
  8
40
 62
    14
  5
91D
 10
14991.5
 20
49285.17
 30
0.0
  0
VERTEX
  8
40
 62
    14
  5
91E
 10
15010.71
 20
49282.59
 30
0.0
  0
SEQEND
  8
0
 62
    14
  5
91F
  0
POLYLINE
  8
4
  6
PHANTOM
 62
    14
  5
920
 66
     1
 10
0.0
 20
0.0
 30
0.0
 40
10.0
 41
10.0
  0
VERTEX
  8
4
 62
    14
  5
921
 10
15010.71
 20
49282.59
 30
0.0
  0
VERTEX
  8
4
 62
    14
  5
922
 10
15014.39
 20
49282.1
 30
0.0
  0
SEQEND
  8
0
 62
    14
  5
923
  0
POLYLINE
  8
40
  6
PHANTOM
 62
    14
  5
924
 66
     1
 10
0.0
 20
0.0
 30
0.0
 40
10.0
 41
10.0
  0
VERTEX
  8
40
 62
    14
  5
925
 10
15014.39
 20
49282.1
 30
0.0
  0
VERTEX
  8
40
 62
    14
  5
926
 10
15020.35
 20
49253.29
 30
0.0
  0
SEQEND
  8
0
 62
    14
  5
927
  0
POLYLINE
  8
40
  6
PHANTOM
 62
    14
  5
928
 66
     1
 10
0.0
 20
0.0
 30
0.0
 40
10.0
 41
10.0
  0
VERTEX
  8
40
 62
    14
  5
929
 10
15020.35
 20
49253.29
 30
0.0
  0
VERTEX
  8
40
 62
    14
  5
92A
 10
15013.31
 20
49248.01
 30
0.0
  0
SEQEND
  8
0
 62
    14
  5
92B
  0
POLYLINE
  8
40
  6
PHANTOM
 62
    14
  5
92C
 66
     1
 10
0.0
 20
0.0
 30
0.0
 40
10.0
 41
10.0
  0
VERTEX
  8
40
 62
    14
  5
92D
 10
15013.31
 20
49248.01
 30
0.0
  0
VERTEX
  8
40
 62
    14
  5
92E
 10
15010.83
 20
49239.18
 30
0.0
  0
SEQEND
  8
0
 62
    14
  5
92F
  0
POLYLINE
  8
40
  6
PHANTOM
 62
    14
  5
930
 66
     1
 10
0.0
 20
0.0
 30
0.0
 40
10.0
 41
10.0
  0
VERTEX
  8
40
 62
    14
  5
931
 10
15010.83
 20
49239.18
 30
0.0
  0
VERTEX
  8
40
 62
    14
  5
932
 10
15021.35
 20
49226.46
 30
0.0
  0
SEQEND
  8
0
 62
    14
  5
933
  0
POLYLINE
  8
40
  6
PHANTOM
 62
    14
  5
934
 66
     1
 10
0.0
 20
0.0
 30
0.0
 40
10.0
 41
10.0
  0
VERTEX
  8
40
 62
    14
  5
935
 10
15021.35
 20
49226.46
 30
0.0
  0
VERTEX
  8
40
 62
    14
  5
936
 10
15027.54
 20
49226.29
 30
0.0
  0
SEQEND
  8
0
 62
    14
  5
937
  0
POLYLINE
  8
40
  6
PHANTOM
 62
    14
  5
938
 66
     1
 10
0.0
 20
0.0
 30
0.0
 40
10.0
 41
10.0
  0
VERTEX
  8
40
 62
    14
  5
939
 10
15027.54
 20
49226.29
 30
0.0
  0
VERTEX
  8
40
 62
    14
  5
93A
 10
15033.75
 20
49229.25
 30
0.0
  0
SEQEND
  8
0
 62
    14
  5
93B
  0
POLYLINE
  8
40
  6
PHANTOM
 62
    14
  5
93C
 66
     1
 10
0.0
 20
0.0
 30
0.0
 40
10.0
 41
10.0
  0
VERTEX
  8
40
 62
    14
  5
93D
 10
15033.75
 20
49229.25
 30
0.0
  0
VERTEX
  8
40
 62
    14
  5
93E
 10
15056.63
 20
49201.69
 30
0.0
  0
SEQEND
  8
0
 62
    14
  5
93F
  0
POLYLINE
  8
40
  6
PHANTOM
 62
    14
  5
940
 66
     1
 10
0.0
 20
0.0
 30
0.0
 40
10.0
 41
10.0
  0
VERTEX
  8
40
 62
    14
  5
941
 10
15056.63
 20
49201.69
 30
0.0
  0
VERTEX
  8
40
 62
    14
  5
942
 10
15066.51
 20
49203.27
 30
0.0
  0
SEQEND
  8
0
 62
    14
  5
943
  0
POLYLINE
  8
40
  6
PHANTOM
 62
    14
  5
944
 66
     1
 10
0.0
 20
0.0
 30
0.0
 40
10.0
 41
10.0
  0
VERTEX
  8
40
 62
    14
  5
945
 10
15066.51
 20
49203.27
 30
0.0
  0
VERTEX
  8
40
 62
    14
  5
946
 10
15120.73
 20
49204.42
 30
0.0
  0
SEQEND
  8
0
 62
    14
  5
947
  0
POLYLINE
  8
40
  6
PHANTOM
 62
    14
  5
948
 66
     1
 10
0.0
 20
0.0
 30
0.0
 40
10.0
 41
10.0
  0
VERTEX
  8
40
 62
    14
  5
949
 10
15120.73
 20
49204.42
 30
0.0
  0
VERTEX
  8
40
 62
    14
  5
94A
 10
15121.35
 20
49279.98
 30
0.0
  0
SEQEND
  8
0
 62
    14
  5
94B
  0
POLYLINE
  8
40
  6
PHANTOM
 62
    14
  5
94C
 66
     1
 10
0.0
 20
0.0
 30
0.0
 40
10.0
 41
10.0
  0
VERTEX
  8
40
 62
    14
  5
94D
 10
15121.35
 20
49279.98
 30
0.0
  0
VERTEX
  8
40
 62
    14
  5
94E
 10
15160.53
 20
49280.3
 30
0.0
  0
SEQEND
  8
0
 62
    14
  5
94F
  0
POLYLINE
  8
40
  6
PHANTOM
 62
    14
  5
950
 66
     1
 10
0.0
 20
0.0
 30
0.0
 40
10.0
 41
10.0
  0
VERTEX
  8
40
 62
    14
  5
951
 10
15160.53
 20
49280.3
 30
0.0
  0
VERTEX
  8
40
 62
    14
  5
952
 10
15199.74
 20
49280.6
 30
0.0
  0
SEQEND
  8
0
 62
    14
  5
953
  0
POLYLINE
  8
40
  6
PHANTOM
 62
    14
  5
954
 66
     1
 10
0.0
 20
0.0
 30
0.0
 40
10.0
 41
10.0
  0
VERTEX
  8
40
 62
    14
  5
955
 10
15199.74
 20
49280.6
 30
0.0
  0
VERTEX
  8
40
 62
    14
  5
956
 10
15219.86
 20
49280.19
 30
0.0
  0
SEQEND
  8
0
 62
    14
  5
957
  0
POLYLINE
  8
40
  6
PHANTOM
 62
    14
  5
958
 66
     1
 10
0.0
 20
0.0
 30
0.0
 40
10.0
 41
10.0
  0
VERTEX
  8
40
 62
    14
  5
959
 10
15219.86
 20
49280.19
 30
0.0
  0
VERTEX
  8
40
 62
    14
  5
95A
 10
15219.16
 20
49207.62
 30
0.0
  0
SEQEND
  8
0
 62
    14
  5
95B
  0
POLYLINE
  8
40
  6
PHANTOM
 62
    14
  5
95C
 66
     1
 10
0.0
 20
0.0
 30
0.0
 40
10.0
 41
10.0
  0
VERTEX
  8
40
 62
    14
  5
95D
 10
15219.16
 20
49207.62
 30
0.0
  0
VERTEX
  8
40
 62
    14
  5
95E
 10
15258.3
 20
49207.99
 30
0.0
  0
SEQEND
  8
0
 62
    14
  5
95F
  0
POLYLINE
  8
40
  6
PHANTOM
 62
    14
  5
960
 66
     1
 10
0.0
 20
0.0
 30
0.0
 40
10.0
 41
10.0
  0
VERTEX
  8
40
 62
    14
  5
961
 10
15258.3
 20
49207.99
 30
0.0
  0
VERTEX
  8
40
 62
    14
  5
962
 10
15258.11
 20
49189.6
 30
0.0
  0
SEQEND
  8
0
 62
    14
  5
963
  0
POLYLINE
  8
40
  6
PHANTOM
 62
    14
  5
964
 66
     1
 10
0.0
 20
0.0
 30
0.0
 40
10.0
 41
10.0
  0
VERTEX
  8
40
 62
    14
  5
965
 10
15258.11
 20
49189.6
 30
0.0
  0
VERTEX
  8
40
 62
    14
  5
966
 10
15331.8
 20
49190.27
 30
0.0
  0
SEQEND
  8
0
 62
    14
  5
967
  0
POLYLINE
  8
40
  6
PHANTOM
 62
    14
  5
968
 66
     1
 10
0.0
 20
0.0
 30
0.0
 40
10.0
 41
10.0
  0
VERTEX
  8
40
 62
    14
  5
969
 10
15331.8
 20
49637.85
 30
0.0
  0
VERTEX
  8
40
 62
    14
  5
96A
 10
15307.98
 20
49689.7
 30
0.0
  0
SEQEND
  8
0
 62
    14
  5
96B
  0
POLYLINE
  8
40
  6
PHANTOM
 62
    14
  5
96C
 66
     1
 10
0.0
 20
0.0
 30
0.0
 40
10.0
 41
10.0
  0
VERTEX
  8
40
 62
    14
  5
96D
 10
14873.67
 20
49689.7
 30
0.0
  0
VERTEX
  8
40
 62
    14
  5
96E
 10
14873.41
 20
49652.68
 30
0.0
  0
SEQEND
  8
0
 62
    14
  5
96F
  0
POLYLINE
  8
5
 62
    14
  5
970
 66
     1
 10
0.0
 20
0.0
 30
0.0
 40
10.0
 41
10.0
  0
VERTEX
  8
5
 62
    14
  5
971
 10
14985.42
 20
49508.65
 30
0.0
  0
VERTEX
  8
5
 62
    14
  5
972
 10
14985.06
 20
49543.14
 30
0.0
  0
SEQEND
  8
0
 62
    14
  5
973
  0
POLYLINE
  8
5
 62
    14
  5
974
 66
     1
 10
0.0
 20
0.0
 30
0.0
 40
10.0
 41
10.0
  0
VERTEX
  8
5
 62
    14
  5
975
 10
14985.06
 20
49543.14
 30
0.0
  0
VERTEX
  8
5
 62
    14
  5
976
 10
15069.33
 20
49544.01
 30
0.0
  0
SEQEND
  8
0
 62
    14
  5
977
  0
POLYLINE
  8
5
 62
    14
  5
978
 66
     1
 10
0.0
 20
0.0
 30
0.0
 40
10.0
 41
10.0
  0
VERTEX
  8
5
 62
    14
  5
979
 10
15069.33
 20
49544.01
 30
0.0
  0
VERTEX
  8
5
 62
    14
  5
97A
 10
15103.4
 20
49544.29
 30
0.0
  0
SEQEND
  8
0
 62
    14
  5
97B
  0
POLYLINE
  8
5
 62
    14
  5
97C
 66
     1
 10
0.0
 20
0.0
 30
0.0
 40
10.0
 41
10.0
  0
VERTEX
  8
5
 62
    14
  5
97D
 10
15103.4
 20
49544.29
 30
0.0
  0
VERTEX
  8
5
 62
    14
  5
97E
 10
15162.87
 20
49544.79
 30
0.0
  0
SEQEND
  8
0
 62
    14
  5
97F
  0
POLYLINE
  8
5
 62
    14
  5
980
 66
     1
 10
0.0
 20
0.0
 30
0.0
 40
10.0
 41
10.0
  0
VERTEX
  8
5
 62
    14
  5
981
 10
15162.87
 20
49544.79
 30
0.0
  0
VERTEX
  8
5
 62
    14
  5
982
 10
15161.76
 20
49418.55
 30
0.0
  0
SEQEND
  8
0
 62
    14
  5
983
  0
POLYLINE
  8
5
 62
    14
  5
984
 66
     1
 10
0.0
 20
0.0
 30
0.0
 40
10.0
 41
10.0
  0
VERTEX
  8
5
 62
    14
  5
985
 10
15161.65
 20
49406.55
 30
0.0
  0
VERTEX
  8
5
 62
    14
  5
986
 10
15160.53
 20
49280.3
 30
0.0
  0
SEQEND
  8
0
 62
    14
  5
987
  0
POLYLINE
  8
4
  6
PHANTOM
 62
    14
  5
988
 66
     1
 10
0.0
 20
0.0
 30
0.0
 40
10.0
 41
10.0
  0
VERTEX
  8
4
 62
    14
  5
989
 10
14860.87
 20
49341.71
 30
0.0
  0
VERTEX
  8
4
 62
    14
  5
98A
 10
14818.83
 20
49341.25
 30
0.0
  0
SEQEND
  8
0
 62
    14
  5
98B
  0
POLYLINE
  8
4
  6
PHANTOM
 62
    14
  5
98C
 66
     1
 10
0.0
 20
0.0
 30
0.0
 40
10.0
 41
10.0
  0
VERTEX
  8
4
 62
    14
  5
98D
 10
14818.83
 20
49341.25
 30
0.0
  0
VERTEX
  8
4
 62
    14
  5
98E
 10
14819.44
 20
49450.86
 30
0.0
  0
SEQEND
  8
0
 62
    14
  5
98F
  0
POLYLINE
  8
4
  6
PHANTOM
 62
    14
  5
990
 66
     1
 10
0.0
 20
0.0
 30
0.0
 40
10.0
 41
10.0
  0
VERTEX
  8
4
 62
    14
  5
991
 10
14861.69
 20
49451.3
 30
0.0
  0
VERTEX
  8
4
 62
    14
  5
992
 10
14819.44
 20
49450.86
 30
0.0
  0
SEQEND
  8
0
 62
    14
  5
993
  0
POLYLINE
  8
4
  6
PHANTOM
 62
    14
  5
994
 66
     1
 10
0.0
 20
0.0
 30
0.0
 40
10.0
 41
10.0
  0
VERTEX
  8
4
 62
    14
  5
995
 10
14860.11
 20
49241.12
 30
0.0
  0
VERTEX
  8
4
 62
    14
  5
996
 10
14860.87
 20
49341.71
 30
0.0
  0
SEQEND
  8
0
 62
    14
  5
997
  0
POLYLINE
  8
5
 62
    14
  5
998
 66
     1
 10
0.0
 20
0.0
 30
0.0
 40
10.0
 41
10.0
  0
VERTEX
  8
5
 62
    14
  5
999
 10
14926.25
 20
49509.08
 30
0.0
  0
VERTEX
  8
5
 62
    14
  5
99A
 10
14985.42
 20
49508.65
 30
0.0
  0
SEQEND
  8
0
 62
    14
  5
99B
  0
POLYLINE
  8
4
  6
PHANTOM
 62
    14
  5
99C
 66
     1
 10
0.0
 20
0.0
 30
0.0
 40
10.0
 41
10.0
  0
VERTEX
  8
4
 62
    14
  5
99D
 10
14861.69
 20
49451.3
 30
0.0
  0
VERTEX
  8
4
 62
    14
  5
99E
 10
14862.13
 20
49509.54
 30
0.0
  0
SEQEND
  8
0
 62
    14
  5
99F
  0
POLYLINE
  8
5
 62
    14
  5
9A0
 66
     1
 10
0.0
 20
0.0
 30
0.0
 40
10.0
 41
10.0
  0
VERTEX
  8
5
 62
    14
  5
9A1
 10
14862.13
 20
49509.54
 30
0.0
  0
VERTEX
  8
5
 62
    14
  5
9A2
 10
14926.25
 20
49509.08
 30
0.0
  0
SEQEND
  8
0
 62
    14
  5
9A3
  0
POLYLINE
  8
4
  6
PHANTOM
 62
    14
  5
9A4
 66
     1
 10
0.0
 20
0.0
 30
0.0
 40
10.0
 41
10.0
  0
VERTEX
  8
4
 62
    14
  5
9A5
 10
14820.28
 20
49571.44
 30
0.0
  0
VERTEX
  8
4
 62
    14
  5
9A6
 10
14819.87
 20
49509.85
 30
0.0
  0
SEQEND
  8
0
 62
    14
  5
9A7
  0
POLYLINE
  8
4
  6
PHANTOM
 62
    14
  5
9A8
 66
     1
 10
0.0
 20
0.0
 30
0.0
 40
10.0
 41
10.0
  0
VERTEX
  8
4
 62
    14
  5
9A9
 10
14819.87
 20
49509.85
 30
0.0
  0
VERTEX
  8
4
 62
    14
  5
9AA
 10
14862.13
 20
49509.54
 30
0.0
  0
SEQEND
  8
0
 62
    14
  5
9AB
  0
POLYLINE
  8
5
 62
    14
  5
9AC
 66
     1
 10
0.0
 20
0.0
 30
0.0
 40
10.0
 41
10.0
  0
VERTEX
  8
5
 62
    14
  5
9AD
 10
15201.01
 20
49412.84
 30
0.0
  0
VERTEX
  8
5
 62
    14
  5
9AE
 10
15161.76
 20
49418.55
 30
0.0
  0
SEQEND
  8
0
 62
    14
  5
9AF
  0
POLYLINE
  8
5
 62
    14
  5
9B0
 66
     1
 10
0.0
 20
0.0
 30
0.0
 40
10.0
 41
10.0
  0
VERTEX
  8
5
 62
    14
  5
9B1
 10
15201.01
 20
49412.84
 30
0.0
  0
VERTEX
  8
5
 62
    14
  5
9B2
 10
15161.65
 20
49406.55
 30
0.0
  0
SEQEND
  8
0
 62
    14
  5
9B3
  0
LINE
  8
3
  6
CONTINUOUS
 62
    14
  5
9B4
 10
15331.8
 20
49637.85
 30
0.0
 11
15307.98
 21
49689.7
 31
0.0
  0
LINE
  8
3
  6
CONTINUOUS
 62
    14
  5
9B5
 10
14794.52
 20
49564.82
 30
0.0
 11
14820.28
 21
49571.44
 31
0.0
  0
LINE
  8
3
  6
CONTINUOUS
 62
    14
  5
9B6
 10
14820.28
 20
49571.44
 30
0.0
 11
14872.83
 21
49571.99
 31
0.0
  0
LINE
  8
3
  6
CONTINUOUS
 62
    14
  5
9B7
 10
14873.41
 20
49652.68
 30
0.0
 11
14873.67
 21
49689.7
 31
0.0
  0
LINE
  8
3
  6
CONTINUOUS
 62
    14
  5
9B8
 10
14789.95
 20
49143.91
 30
0.0
 11
14817.22
 21
49146.94
 31
0.0
  0
LINE
  8
3
  6
CONTINUOUS
 62
    14
  5
9B9
 10
14817.22
 20
49146.94
 30
0.0
 11
14817.88
 21
49240.6
 31
0.0
  0
LINE
  8
3
  6
CONTINUOUS
 62
    14
  5
9BA
 10
14817.88
 20
49240.6
 30
0.0
 11
14860.11
 21
49241.12
 31
0.0
  0
LINE
  8
3
  6
CONTINUOUS
 62
    14
  5
9BB
 10
14860.11
 20
49241.12
 30
0.0
 11
14914.3
 21
49241.77
 31
0.0
  0
LINE
  8
3
  6
CONTINUOUS
 62
    14
  5
9BC
 10
14914.3
 20
49241.77
 30
0.0
 11
14914.48
 21
49266.27
 31
0.0
  0
LINE
  8
3
  6
CONTINUOUS
 62
    14
  5
9BD
 10
14914.48
 20
49266.27
 30
0.0
 11
14927.26
 21
49284.54
 31
0.0
  0
LINE
  8
3
  6
CONTINUOUS
 62
    14
  5
9BE
 10
14927.26
 20
49284.54
 30
0.0
 11
14946.37
 21
49286.2
 31
0.0
  0
LINE
  8
3
  6
CONTINUOUS
 62
    14
  5
9BF
 10
14946.37
 20
49286.2
 30
0.0
 11
14969.09
 21
49288.17
 31
0.0
  0
LINE
  8
3
  6
CONTINUOUS
 62
    14
  5
9C0
 10
14969.09
 20
49288.17
 30
0.0
 11
14991.5
 21
49285.17
 31
0.0
  0
LINE
  8
3
  6
CONTINUOUS
 62
    14
  5
9C1
 10
14991.5
 20
49285.17
 30
0.0
 11
15010.71
 21
49282.59
 31
0.0
  0
LINE
  8
3
  6
CONTINUOUS
 62
    14
  5
9C2
 10
15010.71
 20
49282.59
 30
0.0
 11
15014.39
 21
49282.1
 31
0.0
  0
LINE
  8
3
  6
CONTINUOUS
 62
    14
  5
9C3
 10
15014.39
 20
49282.1
 30
0.0
 11
15020.35
 21
49253.29
 31
0.0
  0
LINE
  8
3
  6
CONTINUOUS
 62
    14
  5
9C4
 10
15020.35
 20
49253.29
 30
0.0
 11
15013.31
 21
49248.01
 31
0.0
  0
LINE
  8
3
  6
CONTINUOUS
 62
    14
  5
9C5
 10
15013.31
 20
49248.01
 30
0.0
 11
15010.83
 21
49239.18
 31
0.0
  0
LINE
  8
3
  6
CONTINUOUS
 62
    14
  5
9C6
 10
15010.83
 20
49239.18
 30
0.0
 11
15021.35
 21
49226.46
 31
0.0
  0
LINE
  8
3
  6
CONTINUOUS
 62
    14
  5
9C7
 10
15021.35
 20
49226.46
 30
0.0
 11
15027.54
 21
49226.29
 31
0.0
  0
LINE
  8
3
  6
CONTINUOUS
 62
    14
  5
9C8
 10
15027.54
 20
49226.29
 30
0.0
 11
15033.75
 21
49229.25
 31
0.0
  0
LINE
  8
3
  6
CONTINUOUS
 62
    14
  5
9C9
 10
15033.75
 20
49229.25
 30
0.0
 11
15056.63
 21
49201.69
 31
0.0
  0
LINE
  8
3
  6
CONTINUOUS
 62
    14
  5
9CA
 10
15056.63
 20
49201.69
 30
0.0
 11
15066.51
 21
49203.27
 31
0.0
  0
LINE
  8
3
  6
CONTINUOUS
 62
    14
  5
9CB
 10
15066.51
 20
49203.27
 30
0.0
 11
15120.73
 21
49204.42
 31
0.0
  0
LINE
  8
3
  6
CONTINUOUS
 62
    14
  5
9CC
 10
15120.73
 20
49204.42
 30
0.0
 11
15121.35
 21
49279.98
 31
0.0
  0
LINE
  8
3
  6
CONTINUOUS
 62
    14
  5
9CD
 10
15121.35
 20
49279.98
 30
0.0
 11
15160.53
 21
49280.3
 31
0.0
  0
LINE
  8
3
  6
CONTINUOUS
 62
    14
  5
9CE
 10
15160.53
 20
49280.3
 30
0.0
 11
15199.74
 21
49280.6
 31
0.0
  0
LINE
  8
3
  6
CONTINUOUS
 62
    14
  5
9CF
 10
15199.74
 20
49280.6
 30
0.0
 11
15219.86
 21
49280.19
 31
0.0
  0
LINE
  8
3
  6
CONTINUOUS
 62
    14
  5
9D0
 10
15219.86
 20
49280.19
 30
0.0
 11
15219.16
 21
49207.62
 31
0.0
  0
LINE
  8
3
  6
CONTINUOUS
 62
    14
  5
9D1
 10
15219.16
 20
49207.62
 30
0.0
 11
15258.3
 21
49207.99
 31
0.0
  0
LINE
  8
3
  6
CONTINUOUS
 62
    14
  5
9D2
 10
15258.3
 20
49207.99
 30
0.0
 11
15258.11
 21
49189.6
 31
0.0
  0
LINE
  8
3
  6
CONTINUOUS
 62
    14
  5
9D3
 10
15258.11
 20
49189.6
 30
0.0
 11
15331.8
 21
49190.27
 31
0.0
  0
POLYLINE
  8
13
  6
CONTINUOUS
 62
     3
  5
9D5
 66
     1
 10
0.0
 20
0.0
 30
0.0
  0
VERTEX
  8
13
  6
CONTINUOUS
 62
     3
  5
9D6
 10
14694.24
 20
49689.7
 30
0.0
  0
VERTEX
  8
13
  6
CONTINUOUS
 62
     3
  5
9D7
 10
14694.24
 20
49675.45
 30
0.0
  0
VERTEX
  8
13
  6
CONTINUOUS
 62
     3
  5
9D8
 10
14685.2
 20
49675.45
 30
0.0
  0
SEQEND
  8
0
 62
     3
  5
9D9
  0
TEXT
  8
38
  6
CONTINUOUS
 62
     8
  5
9DA
 10
14697.04
 20
49655.18
 30
0.0
 40
15.0
  1
09875
 72
     4
 11
14730.79
 21
49662.68
 31
0.0
  0
TEXT
  8
38
  6
CONTINUOUS
 62
     8
  5
9DB
 10
14726.5
 20
49462.45
 30
0.0
 40
15.0
  1
15200
 72
     4
 11
14757.75
 21
49469.95
 31
0.0
  0
TEXT
  8
38
  6
CONTINUOUS
 62
     8
  5
9DC
 10
14726.5
 20
49439.95
 30
0.0
 40
15.0
  1
09800
 72
     4
 11
14757.75
 21
49447.45
 31
0.0
  0
TEXT
  8
38
  6
CONTINUOUS
 62
     8
  5
9DE
 10
14840.8
 20
49420.85
 30
0.0
 40
15.0
  1
15200
 72
     4
 11
14872.05
 21
49428.35
 31
0.0
  0
TEXT
  8
38
  6
CONTINUOUS
 62
     8
  5
9DF
 10
14839.55
 20
49398.35
 30
0.0
 40
15.0
  1
09750
 72
     4
 11
14872.05
 21
49405.85
 31
0.0
  0
TEXT
  8
38
  6
CONTINUOUS
 62
     8
  5
9E0
 10
15030.96
 20
49487.77
 30
0.0
 40
15.0
  1
15300
 72
     4
 11
15062.21
 21
49495.27
 31
0.0
  0
TEXT
  8
38
  6
CONTINUOUS
 62
     8
  5
9E1
 10
15030.96
 20
49465.27
 30
0.0
 40
15.0
  1
09800
 72
     4
 11
15062.21
 21
49472.77
 31
0.0
  0
POLYLINE
  8
40
  6
PHANTOM
 62
    14
  5
9E2
 66
     1
 10
0.0
 20
0.0
 30
0.0
 40
10.0
 41
10.0
  0
VERTEX
  8
40
 62
    14
  5
9E3
 10
14873.41
 20
49652.68
 30
0.0
  0
VERTEX
  8
40
 62
    14
  5
9E4
 10
14872.83
 20
49571.99
 30
0.0
  0
SEQEND
  8
0
 62
    14
  5
9E5
  0
LINE
  8
3
  6
CONTINUOUS
 62
    14
  5
9E6
 10
14872.83
 20
49571.99
 30
0.0
 11
14873.41
 21
49652.68
 31
0.0
  0
POLYLINE
  8
40
  6
PHANTOM
 62
    14
  5
9E7
 66
     1
 10
0.0
 20
0.0
 30
0.0
 40
10.0
 41
10.0
  0
VERTEX
  8
40
 62
    14
  5
9E8
 10
14872.83
 20
49571.99
 30
0.0
  0
VERTEX
  8
40
 62
    14
  5
9E9
 10
14820.28
 20
49571.44
 30
0.0
  0
SEQEND
  8
0
 62
    14
  5
9EA
  0
POLYLINE
  8
40
  6
PHANTOM
 62
    14
  5
9EB
 66
     1
 10
0.0
 20
0.0
 30
0.0
 40
10.0
 41
10.0
  0
VERTEX
  8
40
 62
    14
  5
9EC
 10
14820.28
 20
49571.44
 30
0.0
  0
VERTEX
  8
40
 62
    14
  5
9ED
 10
14794.52
 20
49564.82
 30
0.0
  0
SEQEND
  8
0
 62
    14
  5
9EE
  0
POLYLINE
  8
40
  6
PHANTOM
 62
    14
  5
9EF
 66
     1
 10
0.0
 20
0.0
 30
0.0
 40
10.0
 41
10.0
  0
VERTEX
  8
40
 62
    14
  5
9F0
 10
14794.59
 20
49573.77
 30
0.0
  0
VERTEX
  8
40
 62
    14
  5
9F1
 10
14794.52
 20
49564.82
 30
0.0
  0
SEQEND
  8
0
 62
    14
  5
9F2
  0
POLYLINE
  8
4
  6
PHANTOM
 62
    14
  5
9F4
 66
     1
 10
0.0
 20
0.0
 30
0.0
 40
10.0
 41
10.0
  0
VERTEX
  8
4
 62
    14
  5
9F5
 10
14752.01
 20
49115.7
 30
0.0
  0
VERTEX
  8
4
 62
    14
  5
9F6
 10
14685.2
 20
49116.48
 30
0.0
  0
SEQEND
  8
0
 62
    14
  5
9F7
  0
POLYLINE
  8
25
  6
CONTINUOUS
 62
    14
  5
9F9
 66
     1
 10
0.0
 20
0.0
 30
0.0
 40
0.01
 41
0.01
  0
VERTEX
  8
25
  6
CONTINUOUS
 62
    14
  5
9FA
 10
14798.58
 20
49561.84
 30
0.0
  0
VERTEX
  8
25
  6
CONTINUOUS
 62
    14
  5
9FB
 10
14817.16
 20
49543.26
 30
0.0
  0
VERTEX
  8
25
  6
CONTINUOUS
 62
    14
  5
9FC
 10
14798.58
 20
49524.68
 30
0.0
  0
VERTEX
  8
25
  6
CONTINUOUS
 62
    14
  5
9FD
 10
14798.58
 20
49537.51
 30
0.0
  0
VERTEX
  8
25
  6
CONTINUOUS
 62
    14
  5
9FE
 10
14788.97
 20
49537.51
 30
0.0
  0
VERTEX
  8
25
  6
CONTINUOUS
 62
    14
  5
9FF
 10
14788.97
 20
49549.01
 30
0.0
  0
VERTEX
  8
25
  6
CONTINUOUS
 62
    14
  5
A00
 10
14798.58
 20
49549.01
 30
0.0
  0
VERTEX
  8
25
  6
CONTINUOUS
 62
    14
  5
A01
 10
14798.58
 20
49561.84
 30
0.0
  0
SEQEND
  8
0
 62
    14
  5
A02
  0
TEXT
  8
17
  6
CONTINUOUS
 62
     3
  5
A03
 10
14881.78
 20
49458.12
 30
0.0
 40
17.5
  1
P
 72
     4
 11
14887.61
 21
49466.87
 31
0.0
  0
POLYLINE
  8
17
  6
CONTINUOUS
 62
     3
  5
A04
 66
     1
 10
0.0
 20
0.0
 30
0.0
  0
VERTEX
  8
17
  6
CONTINUOUS
 62
     3
  5
A05
 10
14886.57
 20
49490.71
 30
0.0
  0
VERTEX
  8
17
  6
CONTINUOUS
 62
     3
  5
A06
 10
14907.43
 20
49454.57
 30
0.0
  0
VERTEX
  8
17
  6
CONTINUOUS
 62
     3
  5
A07
 10
14865.7
 20
49454.57
 30
0.0
  0
VERTEX
  8
17
  6
CONTINUOUS
 62
     3
  5
A08
 10
14886.57
 20
49490.71
 30
0.0
  0
SEQEND
  8
0
 62
     3
  5
A09
  0
POLYLINE
  8
12
  6
CONTINUOUS
 62
     5
  5
A0A
 66
     1
 10
0.0
 20
0.0
 30
0.0
  0
VERTEX
  8
12
  6
CONTINUOUS
 62
     5
  5
A0B
 10
15031.93
 20
49537.54
 30
0.0
  0
VERTEX
  8
12
  6
CONTINUOUS
 62
     5
  5
A0C
 10
15061.93
 20
49537.54
 30
0.0
  0
VERTEX
  8
12
  6
CONTINUOUS
 62
     5
  5
A0D
 10
15061.93
 20
49507.54
 30
0.0
  0
VERTEX
  8
12
  6
CONTINUOUS
 62
     5
  5
A0E
 10
15031.93
 20
49507.54
 30
0.0
  0
VERTEX
  8
12
  6
CONTINUOUS
 62
     5
  5
A0F
 10
15031.93
 20
49537.54
 30
0.0
  0
SEQEND
  8
0
 62
     5
  5
A10
  0
TEXT
  8
12
  6
CONTINUOUS
 62
     5
  5
A11
 10
15041.35
 20
49514.22
 30
0.0
 40
17.5
  1
M
 72
     4
 11
15047.18
 21
49522.97
 31
0.0
  0
POLYLINE
  8
22
  6
CONTINUOUS
 62
    10
  5
A12
 66
     1
 10
0.0
 20
0.0
 30
0.0
 40
0.01
 41
0.01
  0
VERTEX
  8
22
  6
CONTINUOUS
 62
    10
  5
A13
 10
14782.19
 20
49514.02
 30
0.0
  0
VERTEX
  8
22
  6
CONTINUOUS
 62
    10
  5
A14
 10
14783.96
 20
49515.79
 30
0.0
  0
VERTEX
  8
22
  6
CONTINUOUS
 62
    10
  5
A15
 10
14781.47
 20
49518.28
 30
0.0
  0
VERTEX
  8
22
  6
CONTINUOUS
 62
    10
  5
A16
 10
14791.07
 20
49517.95
 30
0.0
  0
VERTEX
  8
22
  6
CONTINUOUS
 62
    10
  5
A17
 10
14791.41
 20
49508.34
 30
0.0
  0
VERTEX
  8
22
  6
CONTINUOUS
 62
    10
  5
A18
 10
14788.91
 20
49510.84
 30
0.0
  0
VERTEX
  8
22
  6
CONTINUOUS
 62
    10
  5
A19
 10
14787.14
 20
49509.07
 30
0.0
  0
VERTEX
  8
22
  6
CONTINUOUS
 62
    10
  5
A1A
 10
14782.19
 20
49514.02
 30
0.0
  0
SEQEND
  8
0
 62
    10
  5
A1B
  0
POLYLINE
  8
22
  6
CONTINUOUS
 62
    10
  5
A1C
 66
     1
 10
0.0
 20
0.0
 30
0.0
 40
0.01
 41
0.01
  0
VERTEX
  8
22
  6
CONTINUOUS
 62
    10
  5
A1D
 10
14735.44
 20
49536.37
 30
0.0
  0
VERTEX
  8
22
  6
CONTINUOUS
 62
    10
  5
A1E
 10
14737.94
 20
49536.37
 30
0.0
  0
VERTEX
  8
22
  6
CONTINUOUS
 62
    10
  5
A1F
 10
14737.94
 20
49539.89
 30
0.0
  0
VERTEX
  8
22
  6
CONTINUOUS
 62
    10
  5
A20
 10
14744.49
 20
49532.87
 30
0.0
  0
VERTEX
  8
22
  6
CONTINUOUS
 62
    10
  5
A21
 10
14737.94
 20
49525.84
 30
0.0
  0
VERTEX
  8
22
  6
CONTINUOUS
 62
    10
  5
A22
 10
14737.94
 20
49529.37
 30
0.0
  0
VERTEX
  8
22
  6
CONTINUOUS
 62
    10
  5
A23
 10
14735.44
 20
49529.37
 30
0.0
  0
VERTEX
  8
22
  6
CONTINUOUS
 62
    10
  5
A24
 10
14735.44
 20
49536.37
 30
0.0
  0
SEQEND
  8
0
 62
    10
  5
A25
  0
POLYLINE
  8
22
  6
CONTINUOUS
 62
    10
  5
A26
 66
     1
 10
0.0
 20
0.0
 30
0.0
 40
0.01
 41
0.01
  0
VERTEX
  8
22
  6
CONTINUOUS
 62
    10
  5
A27
 10
14740.25
 20
49502.3
 30
0.0
  0
VERTEX
  8
22
  6
CONTINUOUS
 62
    10
  5
A28
 10
14742.71
 20
49502.73
 30
0.0
  0
VERTEX
  8
22
  6
CONTINUOUS
 62
    10
  5
A29
 10
14742.1
 20
49506.2
 30
0.0
  0
VERTEX
  8
22
  6
CONTINUOUS
 62
    10
  5
A2A
 10
14749.77
 20
49500.42
 30
0.0
  0
VERTEX
  8
22
  6
CONTINUOUS
 62
    10
  5
A2B
 10
14744.54
 20
49492.36
 30
0.0
  0
VERTEX
  8
22
  6
CONTINUOUS
 62
    10
  5
A2C
 10
14743.93
 20
49495.84
 30
0.0
  0
VERTEX
  8
22
  6
CONTINUOUS
 62
    10
  5
A2D
 10
14741.47
 20
49495.4
 30
0.0
  0
VERTEX
  8
22
  6
CONTINUOUS
 62
    10
  5
A2E
 10
14740.25
 20
49502.3
 30
0.0
  0
SEQEND
  8
0
 62
    10
  5
A2F
  0
POLYLINE
  8
22
  6
CONTINUOUS
 62
    10
  5
A30
 66
     1
 10
0.0
 20
0.0
 30
0.0
 40
0.01
 41
0.01
  0
VERTEX
  8
22
  6
CONTINUOUS
 62
    10
  5
A31
 10
14727.29
 20
49481.13
 30
0.0
  0
VERTEX
  8
22
  6
CONTINUOUS
 62
    10
  5
A32
 10
14727.29
 20
49483.63
 30
0.0
  0
VERTEX
  8
22
  6
CONTINUOUS
 62
    10
  5
A33
 10
14723.77
 20
49483.63
 30
0.0
  0
VERTEX
  8
22
  6
CONTINUOUS
 62
    10
  5
A34
 10
14730.79
 20
49490.18
 30
0.0
  0
VERTEX
  8
22
  6
CONTINUOUS
 62
    10
  5
A35
 10
14737.82
 20
49483.63
 30
0.0
  0
VERTEX
  8
22
  6
CONTINUOUS
 62
    10
  5
A36
 10
14734.29
 20
49483.63
 30
0.0
  0
VERTEX
  8
22
  6
CONTINUOUS
 62
    10
  5
A37
 10
14734.29
 20
49481.13
 30
0.0
  0
VERTEX
  8
22
  6
CONTINUOUS
 62
    10
  5
A38
 10
14727.29
 20
49481.13
 30
0.0
  0
SEQEND
  8
0
 62
    10
  5
A39
  0
POLYLINE
  8
22
  6
CONTINUOUS
 62
    10
  5
A3A
 66
     1
 10
0.0
 20
0.0
 30
0.0
 40
0.01
 41
0.01
  0
VERTEX
  8
22
  6
CONTINUOUS
 62
    10
  5
A3B
 10
14740.9
 20
49271.24
 30
0.0
  0
VERTEX
  8
22
  6
CONTINUOUS
 62
    10
  5
A3C
 10
14740.9
 20
49273.74
 30
0.0
  0
VERTEX
  8
22
  6
CONTINUOUS
 62
    10
  5
A3D
 10
14737.38
 20
49273.74
 30
0.0
  0
VERTEX
  8
22
  6
CONTINUOUS
 62
    10
  5
A3E
 10
14744.4
 20
49280.29
 30
0.0
  0
VERTEX
  8
22
  6
CONTINUOUS
 62
    10
  5
A3F
 10
14751.43
 20
49273.74
 30
0.0
  0
VERTEX
  8
22
  6
CONTINUOUS
 62
    10
  5
A40
 10
14747.9
 20
49273.74
 30
0.0
  0
VERTEX
  8
22
  6
CONTINUOUS
 62
    10
  5
A41
 10
14747.9
 20
49271.24
 30
0.0
  0
VERTEX
  8
22
  6
CONTINUOUS
 62
    10
  5
A42
 10
14740.9
 20
49271.24
 30
0.0
  0
SEQEND
  8
0
 62
    10
  5
A43
  0
POLYLINE
  8
22
  6
CONTINUOUS
 62
    10
  5
A44
 66
     1
 10
0.0
 20
0.0
 30
0.0
 40
0.01
 41
0.01
  0
VERTEX
  8
22
  6
CONTINUOUS
 62
    10
  5
A45
 10
14740.9
 20
49398.38
 30
0.0
  0
VERTEX
  8
22
  6
CONTINUOUS
 62
    10
  5
A46
 10
14740.9
 20
49400.88
 30
0.0
  0
VERTEX
  8
22
  6
CONTINUOUS
 62
    10
  5
A47
 10
14737.38
 20
49400.88
 30
0.0
  0
VERTEX
  8
22
  6
CONTINUOUS
 62
    10
  5
A48
 10
14744.4
 20
49407.43
 30
0.0
  0
VERTEX
  8
22
  6
CONTINUOUS
 62
    10
  5
A49
 10
14751.43
 20
49400.88
 30
0.0
  0
VERTEX
  8
22
  6
CONTINUOUS
 62
    10
  5
A4A
 10
14747.9
 20
49400.88
 30
0.0
  0
VERTEX
  8
22
  6
CONTINUOUS
 62
    10
  5
A4B
 10
14747.9
 20
49398.38
 30
0.0
  0
VERTEX
  8
22
  6
CONTINUOUS
 62
    10
  5
A4C
 10
14740.9
 20
49398.38
 30
0.0
  0
SEQEND
  8
0
 62
    10
  5
A4D
  0
POLYLINE
  8
22
  6
CONTINUOUS
 62
    10
  5
A4E
 66
     1
 10
0.0
 20
0.0
 30
0.0
 40
0.01
 41
0.01
  0
VERTEX
  8
22
  6
CONTINUOUS
 62
    10
  5
A4F
 10
14743.24
 20
49427.03
 30
0.0
  0
VERTEX
  8
22
  6
CONTINUOUS
 62
    10
  5
A50
 10
14742.18
 20
49429.3
 30
0.0
  0
VERTEX
  8
22
  6
CONTINUOUS
 62
    10
  5
A51
 10
14738.99
 20
49427.81
 30
0.0
  0
VERTEX
  8
22
  6
CONTINUOUS
 62
    10
  5
A52
 10
14742.58
 20
49436.71
 30
0.0
  0
VERTEX
  8
22
  6
CONTINUOUS
 62
    10
  5
A53
 10
14751.72
 20
49433.75
 30
0.0
  0
VERTEX
  8
22
  6
CONTINUOUS
 62
    10
  5
A54
 10
14748.52
 20
49432.26
 30
0.0
  0
VERTEX
  8
22
  6
CONTINUOUS
 62
    10
  5
A55
 10
14749.58
 20
49429.99
 30
0.0
  0
VERTEX
  8
22
  6
CONTINUOUS
 62
    10
  5
A56
 10
14743.24
 20
49427.03
 30
0.0
  0
SEQEND
  8
0
 62
    10
  5
A57
  0
POLYLINE
  8
22
  6
CONTINUOUS
 62
    10
  5
A58
 66
     1
 10
0.0
 20
0.0
 30
0.0
 40
0.01
 41
0.01
  0
VERTEX
  8
22
  6
CONTINUOUS
 62
    10
  5
A59
 10
14703.24
 20
49458.85
 30
0.0
  0
VERTEX
  8
22
  6
CONTINUOUS
 62
    10
  5
A5A
 10
14705.74
 20
49458.85
 30
0.0
  0
VERTEX
  8
22
  6
CONTINUOUS
 62
    10
  5
A5B
 10
14705.74
 20
49462.37
 30
0.0
  0
VERTEX
  8
22
  6
CONTINUOUS
 62
    10
  5
A5C
 10
14712.29
 20
49455.35
 30
0.0
  0
VERTEX
  8
22
  6
CONTINUOUS
 62
    10
  5
A5D
 10
14705.74
 20
49448.32
 30
0.0
  0
VERTEX
  8
22
  6
CONTINUOUS
 62
    10
  5
A5E
 10
14705.74
 20
49451.85
 30
0.0
  0
VERTEX
  8
22
  6
CONTINUOUS
 62
    10
  5
A5F
 10
14703.24
 20
49451.85
 30
0.0
  0
VERTEX
  8
22
  6
CONTINUOUS
 62
    10
  5
A60
 10
14703.24
 20
49458.85
 30
0.0
  0
SEQEND
  8
0
 62
    10
  5
A61
  0
POLYLINE
  8
22
  6
CONTINUOUS
 62
    10
  5
A62
 66
     1
 10
0.0
 20
0.0
 30
0.0
 40
0.01
 41
0.01
  0
VERTEX
  8
22
  6
CONTINUOUS
 62
    10
  5
A63
 10
14695.87
 20
49192.43
 30
0.0
  0
VERTEX
  8
22
  6
CONTINUOUS
 62
    10
  5
A64
 10
14698.37
 20
49192.43
 30
0.0
  0
VERTEX
  8
22
  6
CONTINUOUS
 62
    10
  5
A65
 10
14698.37
 20
49195.95
 30
0.0
  0
VERTEX
  8
22
  6
CONTINUOUS
 62
    10
  5
A66
 10
14704.92
 20
49188.93
 30
0.0
  0
VERTEX
  8
22
  6
CONTINUOUS
 62
    10
  5
A67
 10
14698.37
 20
49181.9
 30
0.0
  0
VERTEX
  8
22
  6
CONTINUOUS
 62
    10
  5
A68
 10
14698.37
 20
49185.43
 30
0.0
  0
VERTEX
  8
22
  6
CONTINUOUS
 62
    10
  5
A69
 10
14695.87
 20
49185.43
 30
0.0
  0
VERTEX
  8
22
  6
CONTINUOUS
 62
    10
  5
A6A
 10
14695.87
 20
49192.43
 30
0.0
  0
SEQEND
  8
0
 62
    10
  5
A6B
  0
POLYLINE
  8
12
  6
CONTINUOUS
 62
     5
  5
A6C
 66
     1
 10
0.0
 20
0.0
 30
0.0
  0
VERTEX
  8
12
  6
CONTINUOUS
 62
     5
  5
A6D
 10
14755.05
 20
49512.13
 30
0.0
  0
VERTEX
  8
12
  6
CONTINUOUS
 62
     5
  5
A6E
 10
14785.05
 20
49512.13
 30
0.0
  0
VERTEX
  8
12
  6
CONTINUOUS
 62
     5
  5
A6F
 10
14785.05
 20
49482.13
 30
0.0
  0
VERTEX
  8
12
  6
CONTINUOUS
 62
     5
  5
A70
 10
14755.05
 20
49482.13
 30
0.0
  0
VERTEX
  8
12
  6
CONTINUOUS
 62
     5
  5
A71
 10
14755.05
 20
49512.13
 30
0.0
  0
SEQEND
  8
0
 62
     5
  5
A72
  0
TEXT
  8
12
  6
CONTINUOUS
 62
     5
  5
A73
 10
14764.47
 20
49488.81
 30
0.0
 40
17.5
  1
M
 72
     4
 11
14770.3
 21
49497.56
 31
0.0
  0
POLYLINE
  8
22
  6
CONTINUOUS
 62
    10
  5
A74
 66
     1
 10
0.0
 20
0.0
 30
0.0
 40
0.01
 41
0.01
  0
VERTEX
  8
22
  6
CONTINUOUS
 62
    10
  5
A75
 10
15217.39
 20
49113.89
 30
0.0
  0
VERTEX
  8
22
  6
CONTINUOUS
 62
    10
  5
A76
 10
15217.39
 20
49111.39
 30
0.0
  0
VERTEX
  8
22
  6
CONTINUOUS
 62
    10
  5
A77
 10
15220.91
 20
49111.39
 30
0.0
  0
VERTEX
  8
22
  6
CONTINUOUS
 62
    10
  5
A78
 10
15213.89
 20
49104.84
 30
0.0
  0
VERTEX
  8
22
  6
CONTINUOUS
 62
    10
  5
A79
 10
15206.86
 20
49111.39
 30
0.0
  0
VERTEX
  8
22
  6
CONTINUOUS
 62
    10
  5
A7A
 10
15210.39
 20
49111.39
 30
0.0
  0
VERTEX
  8
22
  6
CONTINUOUS
 62
    10
  5
A7B
 10
15210.39
 20
49113.89
 30
0.0
  0
VERTEX
  8
22
  6
CONTINUOUS
 62
    10
  5
A7C
 10
15217.39
 20
49113.89
 30
0.0
  0
SEQEND
  8
0
 62
    10
  5
A7D
  0
POLYLINE
  8
22
  6
CONTINUOUS
 62
    10
  5
A7E
 66
     1
 10
0.0
 20
0.0
 30
0.0
 40
0.01
 41
0.01
  0
VERTEX
  8
22
  6
CONTINUOUS
 62
    10
  5
A7F
 10
15299.81
 20
49090.03
 30
0.0
  0
VERTEX
  8
22
  6
CONTINUOUS
 62
    10
  5
A80
 10
15302.31
 20
49090.03
 30
0.0
  0
VERTEX
  8
22
  6
CONTINUOUS
 62
    10
  5
A81
 10
15302.31
 20
49093.55
 30
0.0
  0
VERTEX
  8
22
  6
CONTINUOUS
 62
    10
  5
A82
 10
15308.86
 20
49086.53
 30
0.0
  0
VERTEX
  8
22
  6
CONTINUOUS
 62
    10
  5
A83
 10
15302.31
 20
49079.5
 30
0.0
  0
VERTEX
  8
22
  6
CONTINUOUS
 62
    10
  5
A84
 10
15302.31
 20
49083.03
 30
0.0
  0
VERTEX
  8
22
  6
CONTINUOUS
 62
    10
  5
A85
 10
15299.81
 20
49083.03
 30
0.0
  0
VERTEX
  8
22
  6
CONTINUOUS
 62
    10
  5
A86
 10
15299.81
 20
49090.03
 30
0.0
  0
SEQEND
  8
0
 62
    10
  5
A87
  0
POLYLINE
  8
22
  6
CONTINUOUS
 62
    10
  5
A88
 66
     1
 10
0.0
 20
0.0
 30
0.0
 40
0.01
 41
0.01
  0
VERTEX
  8
22
  6
CONTINUOUS
 62
    10
  5
A89
 10
15299.13
 20
49138.8
 30
0.0
  0
VERTEX
  8
22
  6
CONTINUOUS
 62
    10
  5
A8A
 10
15301.63
 20
49138.8
 30
0.0
  0
VERTEX
  8
22
  6
CONTINUOUS
 62
    10
  5
A8B
 10
15301.63
 20
49142.32
 30
0.0
  0
VERTEX
  8
22
  6
CONTINUOUS
 62
    10
  5
A8C
 10
15308.18
 20
49135.3
 30
0.0
  0
VERTEX
  8
22
  6
CONTINUOUS
 62
    10
  5
A8D
 10
15301.63
 20
49128.27
 30
0.0
  0
VERTEX
  8
22
  6
CONTINUOUS
 62
    10
  5
A8E
 10
15301.63
 20
49131.8
 30
0.0
  0
VERTEX
  8
22
  6
CONTINUOUS
 62
    10
  5
A8F
 10
15299.13
 20
49131.8
 30
0.0
  0
VERTEX
  8
22
  6
CONTINUOUS
 62
    10
  5
A90
 10
15299.13
 20
49138.8
 30
0.0
  0
SEQEND
  8
0
 62
    10
  5
A91
  0
POLYLINE
  8
22
  6
CONTINUOUS
 62
    10
  5
A92
 66
     1
 10
0.0
 20
0.0
 30
0.0
 40
0.01
 41
0.01
  0
VERTEX
  8
22
  6
CONTINUOUS
 62
    10
  5
A93
 10
15235.71
 20
49137.05
 30
0.0
  0
VERTEX
  8
22
  6
CONTINUOUS
 62
    10
  5
A94
 10
15238.21
 20
49137.05
 30
0.0
  0
VERTEX
  8
22
  6
CONTINUOUS
 62
    10
  5
A95
 10
15238.21
 20
49140.57
 30
0.0
  0
VERTEX
  8
22
  6
CONTINUOUS
 62
    10
  5
A96
 10
15244.76
 20
49133.55
 30
0.0
  0
VERTEX
  8
22
  6
CONTINUOUS
 62
    10
  5
A97
 10
15238.21
 20
49126.52
 30
0.0
  0
VERTEX
  8
22
  6
CONTINUOUS
 62
    10
  5
A98
 10
15238.21
 20
49130.05
 30
0.0
  0
VERTEX
  8
22
  6
CONTINUOUS
 62
    10
  5
A99
 10
15235.71
 20
49130.05
 30
0.0
  0
VERTEX
  8
22
  6
CONTINUOUS
 62
    10
  5
A9A
 10
15235.71
 20
49137.05
 30
0.0
  0
SEQEND
  8
0
 62
    10
  5
A9B
  0
POLYLINE
  8
22
  6
CONTINUOUS
 62
    10
  5
A9C
 66
     1
 10
0.0
 20
0.0
 30
0.0
 40
0.01
 41
0.01
  0
VERTEX
  8
22
  6
CONTINUOUS
 62
    10
  5
A9D
 10
15184.91
 20
49136.18
 30
0.0
  0
VERTEX
  8
22
  6
CONTINUOUS
 62
    10
  5
A9E
 10
15187.41
 20
49136.18
 30
0.0
  0
VERTEX
  8
22
  6
CONTINUOUS
 62
    10
  5
A9F
 10
15187.41
 20
49139.7
 30
0.0
  0
VERTEX
  8
22
  6
CONTINUOUS
 62
    10
  5
AA0
 10
15193.96
 20
49132.68
 30
0.0
  0
VERTEX
  8
22
  6
CONTINUOUS
 62
    10
  5
AA1
 10
15187.41
 20
49125.65
 30
0.0
  0
VERTEX
  8
22
  6
CONTINUOUS
 62
    10
  5
AA2
 10
15187.41
 20
49129.18
 30
0.0
  0
VERTEX
  8
22
  6
CONTINUOUS
 62
    10
  5
AA3
 10
15184.91
 20
49129.18
 30
0.0
  0
VERTEX
  8
22
  6
CONTINUOUS
 62
    10
  5
AA4
 10
15184.91
 20
49136.18
 30
0.0
  0
SEQEND
  8
0
 62
    10
  5
AA5
  0
POLYLINE
  8
22
  6
CONTINUOUS
 62
    10
  5
AA6
 66
     1
 10
0.0
 20
0.0
 30
0.0
 40
0.01
 41
0.01
  0
VERTEX
  8
22
  6
CONTINUOUS
 62
    10
  5
AA7
 10
15126.95
 20
49135.31
 30
0.0
  0
VERTEX
  8
22
  6
CONTINUOUS
 62
    10
  5
AA8
 10
15129.45
 20
49135.31
 30
0.0
  0
VERTEX
  8
22
  6
CONTINUOUS
 62
    10
  5
AA9
 10
15129.45
 20
49138.83
 30
0.0
  0
VERTEX
  8
22
  6
CONTINUOUS
 62
    10
  5
AAA
 10
15136.0
 20
49131.81
 30
0.0
  0
VERTEX
  8
22
  6
CONTINUOUS
 62
    10
  5
AAB
 10
15129.45
 20
49124.78
 30
0.0
  0
VERTEX
  8
22
  6
CONTINUOUS
 62
    10
  5
AAC
 10
15129.45
 20
49128.31
 30
0.0
  0
VERTEX
  8
22
  6
CONTINUOUS
 62
    10
  5
AAD
 10
15126.95
 20
49128.31
 30
0.0
  0
VERTEX
  8
22
  6
CONTINUOUS
 62
    10
  5
AAE
 10
15126.95
 20
49135.31
 30
0.0
  0
SEQEND
  8
0
 62
    10
  5
AAF
  0
POLYLINE
  8
22
  6
CONTINUOUS
 62
    10
  5
AB0
 66
     1
 10
0.0
 20
0.0
 30
0.0
 40
0.01
 41
0.01
  0
VERTEX
  8
22
  6
CONTINUOUS
 62
    10
  5
AB1
 10
14993.97
 20
49131.83
 30
0.0
  0
VERTEX
  8
22
  6
CONTINUOUS
 62
    10
  5
AB2
 10
14996.47
 20
49131.83
 30
0.0
  0
VERTEX
  8
22
  6
CONTINUOUS
 62
    10
  5
AB3
 10
14996.47
 20
49135.35
 30
0.0
  0
VERTEX
  8
22
  6
CONTINUOUS
 62
    10
  5
AB4
 10
15003.02
 20
49128.33
 30
0.0
  0
VERTEX
  8
22
  6
CONTINUOUS
 62
    10
  5
AB5
 10
14996.47
 20
49121.3
 30
0.0
  0
VERTEX
  8
22
  6
CONTINUOUS
 62
    10
  5
AB6
 10
14996.47
 20
49124.83
 30
0.0
  0
VERTEX
  8
22
  6
CONTINUOUS
 62
    10
  5
AB7
 10
14993.97
 20
49124.83
 30
0.0
  0
VERTEX
  8
22
  6
CONTINUOUS
 62
    10
  5
AB8
 10
14993.97
 20
49131.83
 30
0.0
  0
SEQEND
  8
0
 62
    10
  5
AB9
  0
POLYLINE
  8
22
  6
CONTINUOUS
 62
    10
  5
ABA
 66
     1
 10
0.0
 20
0.0
 30
0.0
 40
0.01
 41
0.01
  0
VERTEX
  8
22
  6
CONTINUOUS
 62
    10
  5
ABB
 10
14863.04
 20
49130.09
 30
0.0
  0
VERTEX
  8
22
  6
CONTINUOUS
 62
    10
  5
ABC
 10
14865.54
 20
49130.09
 30
0.0
  0
VERTEX
  8
22
  6
CONTINUOUS
 62
    10
  5
ABD
 10
14865.54
 20
49133.61
 30
0.0
  0
VERTEX
  8
22
  6
CONTINUOUS
 62
    10
  5
ABE
 10
14872.09
 20
49126.59
 30
0.0
  0
VERTEX
  8
22
  6
CONTINUOUS
 62
    10
  5
ABF
 10
14865.54
 20
49119.56
 30
0.0
  0
VERTEX
  8
22
  6
CONTINUOUS
 62
    10
  5
AC0
 10
14865.54
 20
49123.09
 30
0.0
  0
VERTEX
  8
22
  6
CONTINUOUS
 62
    10
  5
AC1
 10
14863.04
 20
49123.09
 30
0.0
  0
VERTEX
  8
22
  6
CONTINUOUS
 62
    10
  5
AC2
 10
14863.04
 20
49130.09
 30
0.0
  0
SEQEND
  8
0
 62
    10
  5
AC3
  0
POLYLINE
  8
22
  6
CONTINUOUS
 62
    10
  5
AC4
 66
     1
 10
0.0
 20
0.0
 30
0.0
 40
0.01
 41
0.01
  0
VERTEX
  8
22
  6
CONTINUOUS
 62
    10
  5
AC5
 10
15100.02
 20
49100.73
 30
0.0
  0
VERTEX
  8
22
  6
CONTINUOUS
 62
    10
  5
AC6
 10
15100.02
 20
49103.23
 30
0.0
  0
VERTEX
  8
22
  6
CONTINUOUS
 62
    10
  5
AC7
 10
15096.5
 20
49103.23
 30
0.0
  0
VERTEX
  8
22
  6
CONTINUOUS
 62
    10
  5
AC8
 10
15103.52
 20
49109.78
 30
0.0
  0
VERTEX
  8
22
  6
CONTINUOUS
 62
    10
  5
AC9
 10
15110.55
 20
49103.23
 30
0.0
  0
VERTEX
  8
22
  6
CONTINUOUS
 62
    10
  5
ACA
 10
15107.02
 20
49103.23
 30
0.0
  0
VERTEX
  8
22
  6
CONTINUOUS
 62
    10
  5
ACB
 10
15107.02
 20
49100.73
 30
0.0
  0
VERTEX
  8
22
  6
CONTINUOUS
 62
    10
  5
ACC
 10
15100.02
 20
49100.73
 30
0.0
  0
SEQEND
  8
0
 62
    10
  5
ACD
  0
POLYLINE
  8
22
  6
CONTINUOUS
 62
    10
  5
ACE
 66
     1
 10
0.0
 20
0.0
 30
0.0
 40
0.01
 41
0.01
  0
VERTEX
  8
22
  6
CONTINUOUS
 62
    10
  5
ACF
 10
14906.09
 20
49102.57
 30
0.0
  0
VERTEX
  8
22
  6
CONTINUOUS
 62
    10
  5
AD0
 10
14906.09
 20
49100.07
 30
0.0
  0
VERTEX
  8
22
  6
CONTINUOUS
 62
    10
  5
AD1
 10
14909.61
 20
49100.07
 30
0.0
  0
VERTEX
  8
22
  6
CONTINUOUS
 62
    10
  5
AD2
 10
14902.59
 20
49093.52
 30
0.0
  0
VERTEX
  8
22
  6
CONTINUOUS
 62
    10
  5
AD3
 10
14895.56
 20
49100.07
 30
0.0
  0
VERTEX
  8
22
  6
CONTINUOUS
 62
    10
  5
AD4
 10
14899.09
 20
49100.07
 30
0.0
  0
VERTEX
  8
22
  6
CONTINUOUS
 62
    10
  5
AD5
 10
14899.09
 20
49102.57
 30
0.0
  0
VERTEX
  8
22
  6
CONTINUOUS
 62
    10
  5
AD6
 10
14906.09
 20
49102.57
 30
0.0
  0
SEQEND
  8
0
 62
    10
  5
AD7
  0
POLYLINE
  8
43
  6
CONTINUOUS
  5
AD8
 66
     1
 10
0.0
 20
0.0
 30
0.0
  0
VERTEX
  8
43
  6
CONTINUOUS
  5
AD9
 10
14897.54
 20
49294.33
 30
0.0
  0
VERTEX
  8
43
  6
CONTINUOUS
  5
ADA
 10
14893.5
 20
49291.86
 30
0.0
  0
VERTEX
  8
43
  6
CONTINUOUS
  5
ADB
 10
14894.45
 20
49296.01
 30
0.0
  0
VERTEX
  8
43
  6
CONTINUOUS
  5
ADC
 10
14897.54
 20
49294.33
 30
0.0
  0
SEQEND
  8
0
  5
ADD
  0
POLYLINE
  8
43
  6
CONTINUOUS
  5
ADE
 66
     1
 10
0.0
 20
0.0
 30
0.0
  0
VERTEX
  8
43
  6
CONTINUOUS
  5
ADF
 10
15291.31
 20
49218.73
 30
0.0
  0
VERTEX
  8
43
  6
CONTINUOUS
  5
AE0
 10
15293.73
 20
49214.66
 30
0.0
  0
VERTEX
  8
43
  6
CONTINUOUS
  5
AE1
 10
15289.6
 20
49215.66
 30
0.0
  0
VERTEX
  8
43
  6
CONTINUOUS
  5
AE2
 10
15291.31
 20
49218.73
 30
0.0
  0
SEQEND
  8
0
  5
AE3
  0
POLYLINE
  8
43
  6
CONTINUOUS
  5
AE4
 66
     1
 10
0.0
 20
0.0
 30
0.0
  0
VERTEX
  8
43
  6
CONTINUOUS
  5
AE5
 10
14897.46
 20
49397.16
 30
0.0
  0
VERTEX
  8
43
  6
CONTINUOUS
  5
AE6
 10
14893.31
 20
49394.88
 30
0.0
  0
VERTEX
  8
43
  6
CONTINUOUS
  5
AE7
 10
14894.45
 20
49398.98
 30
0.0
  0
VERTEX
  8
43
  6
CONTINUOUS
  5
AE8
 10
14897.46
 20
49397.16
 30
0.0
  0
SEQEND
  8
0
  5
AE9
  0
POLYLINE
  8
43
  6
CONTINUOUS
  5
AEA
 66
     1
 10
0.0
 20
0.0
 30
0.0
  0
VERTEX
  8
43
  6
CONTINUOUS
  5
AEB
 10
14898.04
 20
49491.23
 30
0.0
  0
VERTEX
  8
43
  6
CONTINUOUS
  5
AEC
 10
14893.89
 20
49488.95
 30
0.0
  0
VERTEX
  8
43
  6
CONTINUOUS
  5
AED
 10
14895.03
 20
49493.05
 30
0.0
  0
VERTEX
  8
43
  6
CONTINUOUS
  5
AEE
 10
14898.04
 20
49491.23
 30
0.0
  0
SEQEND
  8
0
  5
AEF
  0
POLYLINE
  8
43
  6
CONTINUOUS
  5
AF0
 66
     1
 10
0.0
 20
0.0
 30
0.0
  0
VERTEX
  8
43
  6
CONTINUOUS
  5
AF1
 10
14898.81
 20
49527.7
 30
0.0
  0
VERTEX
  8
43
  6
CONTINUOUS
  5
AF2
 10
14894.66
 20
49525.42
 30
0.0
  0
VERTEX
  8
43
  6
CONTINUOUS
  5
AF3
 10
14895.8
 20
49529.52
 30
0.0
  0
VERTEX
  8
43
  6
CONTINUOUS
  5
AF4
 10
14898.81
 20
49527.7
 30
0.0
  0
SEQEND
  8
0
  5
AF5
  0
POLYLINE
  8
43
  6
CONTINUOUS
  5
AF6
 66
     1
 10
0.0
 20
0.0
 30
0.0
  0
VERTEX
  8
43
  6
CONTINUOUS
  5
AF7
 10
15131.66
 20
49422.77
 30
0.0
  0
VERTEX
  8
43
  6
CONTINUOUS
  5
AF8
 10
15135.81
 20
49425.05
 30
0.0
  0
VERTEX
  8
43
  6
CONTINUOUS
  5
AF9
 10
15134.67
 20
49420.95
 30
0.0
  0
VERTEX
  8
43
  6
CONTINUOUS
  5
AFA
 10
15131.66
 20
49422.77
 30
0.0
  0
SEQEND
  8
0
  5
AFB
  0
POLYLINE
  8
43
  6
CONTINUOUS
  5
AFC
 66
     1
 10
0.0
 20
0.0
 30
0.0
  0
VERTEX
  8
43
  6
CONTINUOUS
  5
AFD
 10
15305.74
 20
49251.52
 30
0.0
  0
VERTEX
  8
43
  6
CONTINUOUS
  5
AFE
 10
15309.77
 20
49254.01
 30
0.0
  0
VERTEX
  8
43
  6
CONTINUOUS
  5
AFF
 10
15308.84
 20
49249.86
 30
0.0
  0
VERTEX
  8
43
  6
CONTINUOUS
  5
B00
 10
15305.74
 20
49251.52
 30
0.0
  0
SEQEND
  8
0
  5
B01
  0
POLYLINE
  8
43
  6
CONTINUOUS
  5
B02
 66
     1
 10
0.0
 20
0.0
 30
0.0
  0
VERTEX
  8
43
  6
CONTINUOUS
  5
B03
 10
15030.12
 20
49523.67
 30
0.0
  0
VERTEX
  8
43
  6
CONTINUOUS
  5
B04
 10
15034.27
 20
49525.95
 30
0.0
  0
VERTEX
  8
43
  6
CONTINUOUS
  5
B05
 10
15033.13
 20
49521.85
 30
0.0
  0
VERTEX
  8
43
  6
CONTINUOUS
  5
B06
 10
15030.12
 20
49523.67
 30
0.0
  0
SEQEND
  8
0
  5
B07
  0
POLYLINE
  8
43
  6
CONTINUOUS
  5
B08
 66
     1
 10
0.0
 20
0.0
 30
0.0
  0
VERTEX
  8
43
  6
CONTINUOUS
  5
B09
 10
15001.22
 20
49246.44
 30
0.0
  0
VERTEX
  8
43
  6
CONTINUOUS
  5
B0A
 10
15001.57
 20
49251.16
 30
0.0
  0
VERTEX
  8
43
  6
CONTINUOUS
  5
B0B
 10
15004.39
 20
49247.97
 30
0.0
  0
VERTEX
  8
43
  6
CONTINUOUS
  5
B0C
 10
15001.22
 20
49246.44
 30
0.0
  0
SEQEND
  8
0
  5
B0D
  0
POLYLINE
  8
43
  6
CONTINUOUS
  5
B0E
 66
     1
 10
0.0
 20
0.0
 30
0.0
  0
VERTEX
  8
43
  6
CONTINUOUS
  5
B0F
 10
14934.25
 20
49528.59
 30
0.0
  0
VERTEX
  8
43
  6
CONTINUOUS
  5
B10
 10
14938.4
 20
49530.87
 30
0.0
  0
VERTEX
  8
43
  6
CONTINUOUS
  5
B11
 10
14937.26
 20
49526.77
 30
0.0
  0
VERTEX
  8
43
  6
CONTINUOUS
  5
B12
 10
14934.25
 20
49528.59
 30
0.0
  0
SEQEND
  8
0
  5
B13
  0
POLYLINE
  8
43
  6
CONTINUOUS
  5
B14
 66
     1
 10
0.0
 20
0.0
 30
0.0
  0
VERTEX
  8
43
  6
CONTINUOUS
  5
B15
 10
15193.82
 20
49497.99
 30
0.0
  0
VERTEX
  8
43
  6
CONTINUOUS
  5
B16
 10
15189.67
 20
49495.71
 30
0.0
  0
VERTEX
  8
43
  6
CONTINUOUS
  5
B17
 10
15190.81
 20
49499.81
 30
0.0
  0
VERTEX
  8
43
  6
CONTINUOUS
  5
B18
 10
15193.82
 20
49497.99
 30
0.0
  0
SEQEND
  8
0
  5
B19
  0
POLYLINE
  8
43
  6
CONTINUOUS
  5
B1A
 66
     1
 10
0.0
 20
0.0
 30
0.0
  0
VERTEX
  8
43
  6
CONTINUOUS
  5
B1B
 10
15193.64
 20
49479.1
 30
0.0
  0
VERTEX
  8
43
  6
CONTINUOUS
  5
B1C
 10
15189.49
 20
49476.82
 30
0.0
  0
VERTEX
  8
43
  6
CONTINUOUS
  5
B1D
 10
15190.63
 20
49480.92
 30
0.0
  0
VERTEX
  8
43
  6
CONTINUOUS
  5
B1E
 10
15193.64
 20
49479.1
 30
0.0
  0
SEQEND
  8
0
  5
B1F
  0
POLYLINE
  8
43
  6
CONTINUOUS
  5
B20
 66
     1
 10
0.0
 20
0.0
 30
0.0
  0
VERTEX
  8
43
  6
CONTINUOUS
  5
B21
 10
15193.46
 20
49460.21
 30
0.0
  0
VERTEX
  8
43
  6
CONTINUOUS
  5
B22
 10
15189.31
 20
49457.93
 30
0.0
  0
VERTEX
  8
43
  6
CONTINUOUS
  5
B23
 10
15190.45
 20
49462.03
 30
0.0
  0
VERTEX
  8
43
  6
CONTINUOUS
  5
B24
 10
15193.46
 20
49460.21
 30
0.0
  0
SEQEND
  8
0
  5
B25
  0
POLYLINE
  8
43
  6
CONTINUOUS
  5
B26
 66
     1
 10
0.0
 20
0.0
 30
0.0
  0
VERTEX
  8
43
  6
CONTINUOUS
  5
B27
 10
15193.28
 20
49441.32
 30
0.0
  0
VERTEX
  8
43
  6
CONTINUOUS
  5
B28
 10
15189.13
 20
49439.04
 30
0.0
  0
VERTEX
  8
43
  6
CONTINUOUS
  5
B29
 10
15190.27
 20
49443.14
 30
0.0
  0
VERTEX
  8
43
  6
CONTINUOUS
  5
B2A
 10
15193.28
 20
49441.32
 30
0.0
  0
SEQEND
  8
0
  5
B2B
  0
POLYLINE
  8
43
  6
CONTINUOUS
  5
B2C
 66
     1
 10
0.0
 20
0.0
 30
0.0
  0
VERTEX
  8
43
  6
CONTINUOUS
  5
B2D
 10
15193.1
 20
49422.43
 30
0.0
  0
VERTEX
  8
43
  6
CONTINUOUS
  5
B2E
 10
15188.95
 20
49420.15
 30
0.0
  0
VERTEX
  8
43
  6
CONTINUOUS
  5
B2F
 10
15190.09
 20
49424.25
 30
0.0
  0
VERTEX
  8
43
  6
CONTINUOUS
  5
B30
 10
15193.1
 20
49422.43
 30
0.0
  0
SEQEND
  8
0
  5
B31
  0
POLYLINE
  8
43
  6
CONTINUOUS
  5
B32
 66
     1
 10
0.0
 20
0.0
 30
0.0
  0
VERTEX
  8
43
  6
CONTINUOUS
  5
B33
 10
15192.92
 20
49403.53
 30
0.0
  0
VERTEX
  8
43
  6
CONTINUOUS
  5
B34
 10
15188.77
 20
49401.25
 30
0.0
  0
VERTEX
  8
43
  6
CONTINUOUS
  5
B35
 10
15189.91
 20
49405.35
 30
0.0
  0
VERTEX
  8
43
  6
CONTINUOUS
  5
B36
 10
15192.92
 20
49403.53
 30
0.0
  0
SEQEND
  8
0
  5
B37
  0
POLYLINE
  8
43
  6
CONTINUOUS
  5
B38
 66
     1
 10
0.0
 20
0.0
 30
0.0
  0
VERTEX
  8
43
  6
CONTINUOUS
  5
B39
 10
15192.74
 20
49384.64
 30
0.0
  0
VERTEX
  8
43
  6
CONTINUOUS
  5
B3A
 10
15188.59
 20
49382.36
 30
0.0
  0
VERTEX
  8
43
  6
CONTINUOUS
  5
B3B
 10
15189.73
 20
49386.46
 30
0.0
  0
VERTEX
  8
43
  6
CONTINUOUS
  5
B3C
 10
15192.74
 20
49384.64
 30
0.0
  0
SEQEND
  8
0
  5
B3D
  0
POLYLINE
  8
43
  6
CONTINUOUS
  5
B3E
 66
     1
 10
0.0
 20
0.0
 30
0.0
  0
VERTEX
  8
43
  6
CONTINUOUS
  5
B3F
 10
15192.56
 20
49365.75
 30
0.0
  0
VERTEX
  8
43
  6
CONTINUOUS
  5
B40
 10
15188.41
 20
49363.47
 30
0.0
  0
VERTEX
  8
43
  6
CONTINUOUS
  5
B41
 10
15189.55
 20
49367.57
 30
0.0
  0
VERTEX
  8
43
  6
CONTINUOUS
  5
B42
 10
15192.56
 20
49365.75
 30
0.0
  0
SEQEND
  8
0
  5
B43
  0
POLYLINE
  8
43
  6
CONTINUOUS
  5
B44
 66
     1
 10
0.0
 20
0.0
 30
0.0
  0
VERTEX
  8
43
  6
CONTINUOUS
  5
B45
 10
15192.01
 20
49309.07
 30
0.0
  0
VERTEX
  8
43
  6
CONTINUOUS
  5
B46
 10
15187.86
 20
49306.79
 30
0.0
  0
VERTEX
  8
43
  6
CONTINUOUS
  5
B47
 10
15189.0
 20
49310.89
 30
0.0
  0
VERTEX
  8
43
  6
CONTINUOUS
  5
B48
 10
15192.01
 20
49309.07
 30
0.0
  0
SEQEND
  8
0
  5
B49
  0
POLYLINE
  8
43
  6
CONTINUOUS
  5
B4A
 66
     1
 10
0.0
 20
0.0
 30
0.0
  0
VERTEX
  8
43
  6
CONTINUOUS
  5
B4B
 10
15191.83
 20
49290.18
 30
0.0
  0
VERTEX
  8
43
  6
CONTINUOUS
  5
B4C
 10
15187.68
 20
49287.9
 30
0.0
  0
VERTEX
  8
43
  6
CONTINUOUS
  5
B4D
 10
15188.82
 20
49292.0
 30
0.0
  0
VERTEX
  8
43
  6
CONTINUOUS
  5
B4E
 10
15191.83
 20
49290.18
 30
0.0
  0
SEQEND
  8
0
  5
B4F
  0
POLYLINE
  8
43
  6
CONTINUOUS
  5
B50
 66
     1
 10
0.0
 20
0.0
 30
0.0
  0
VERTEX
  8
43
  6
CONTINUOUS
  5
B51
 10
15191.65
 20
49271.29
 30
0.0
  0
VERTEX
  8
43
  6
CONTINUOUS
  5
B52
 10
15187.5
 20
49269.01
 30
0.0
  0
VERTEX
  8
43
  6
CONTINUOUS
  5
B53
 10
15188.64
 20
49273.11
 30
0.0
  0
VERTEX
  8
43
  6
CONTINUOUS
  5
B54
 10
15191.65
 20
49271.29
 30
0.0
  0
SEQEND
  8
0
  5
B55
  0
POLYLINE
  8
43
  6
CONTINUOUS
  5
B56
 66
     1
 10
0.0
 20
0.0
 30
0.0
  0
VERTEX
  8
43
  6
CONTINUOUS
  5
B57
 10
15191.47
 20
49252.4
 30
0.0
  0
VERTEX
  8
43
  6
CONTINUOUS
  5
B58
 10
15187.32
 20
49250.12
 30
0.0
  0
VERTEX
  8
43
  6
CONTINUOUS
  5
B59
 10
15188.46
 20
49254.22
 30
0.0
  0
VERTEX
  8
43
  6
CONTINUOUS
  5
B5A
 10
15191.47
 20
49252.4
 30
0.0
  0
SEQEND
  8
0
  5
B5B
  0
POLYLINE
  8
43
  6
CONTINUOUS
  5
B5C
 66
     1
 10
0.0
 20
0.0
 30
0.0
  0
VERTEX
  8
43
  6
CONTINUOUS
  5
B5D
 10
15191.29
 20
49233.51
 30
0.0
  0
VERTEX
  8
43
  6
CONTINUOUS
  5
B5E
 10
15187.14
 20
49231.23
 30
0.0
  0
VERTEX
  8
43
  6
CONTINUOUS
  5
B5F
 10
15188.28
 20
49235.33
 30
0.0
  0
VERTEX
  8
43
  6
CONTINUOUS
  5
B60
 10
15191.29
 20
49233.51
 30
0.0
  0
SEQEND
  8
0
  5
B61
  0
POLYLINE
  8
43
  6
CONTINUOUS
  5
B62
 66
     1
 10
0.0
 20
0.0
 30
0.0
  0
VERTEX
  8
43
  6
CONTINUOUS
  5
B63
 10
15191.11
 20
49214.61
 30
0.0
  0
VERTEX
  8
43
  6
CONTINUOUS
  5
B64
 10
15186.96
 20
49212.33
 30
0.0
  0
VERTEX
  8
43
  6
CONTINUOUS
  5
B65
 10
15188.1
 20
49216.43
 30
0.0
  0
VERTEX
  8
43
  6
CONTINUOUS
  5
B66
 10
15191.11
 20
49214.61
 30
0.0
  0
SEQEND
  8
0
  5
B67
  0
POLYLINE
  8
43
  6
CONTINUOUS
  5
B68
 66
     1
 10
0.0
 20
0.0
 30
0.0
  0
VERTEX
  8
43
  6
CONTINUOUS
  5
B69
 10
15194.0
 20
49516.89
 30
0.0
  0
VERTEX
  8
43
  6
CONTINUOUS
  5
B6A
 10
15189.85
 20
49514.61
 30
0.0
  0
VERTEX
  8
43
  6
CONTINUOUS
  5
B6B
 10
15190.99
 20
49518.71
 30
0.0
  0
VERTEX
  8
43
  6
CONTINUOUS
  5
B6C
 10
15194.0
 20
49516.89
 30
0.0
  0
SEQEND
  8
0
  5
B6D
  0
POLYLINE
  8
43
  6
CONTINUOUS
  5
B6E
 66
     1
 10
0.0
 20
0.0
 30
0.0
  0
VERTEX
  8
43
  6
CONTINUOUS
  5
B6F
 10
15192.37
 20
49346.86
 30
0.0
  0
VERTEX
  8
43
  6
CONTINUOUS
  5
B70
 10
15188.22
 20
49344.58
 30
0.0
  0
VERTEX
  8
43
  6
CONTINUOUS
  5
B71
 10
15189.36
 20
49348.68
 30
0.0
  0
VERTEX
  8
43
  6
CONTINUOUS
  5
B72
 10
15192.37
 20
49346.86
 30
0.0
  0
SEQEND
  8
0
  5
B73
  0
POLYLINE
  8
43
  6
CONTINUOUS
  5
B74
 66
     1
 10
0.0
 20
0.0
 30
0.0
  0
VERTEX
  8
43
  6
CONTINUOUS
  5
B75
 10
15192.19
 20
49327.97
 30
0.0
  0
VERTEX
  8
43
  6
CONTINUOUS
  5
B76
 10
15188.04
 20
49325.69
 30
0.0
  0
VERTEX
  8
43
  6
CONTINUOUS
  5
B77
 10
15189.18
 20
49329.79
 30
0.0
  0
VERTEX
  8
43
  6
CONTINUOUS
  5
B78
 10
15192.19
 20
49327.97
 30
0.0
  0
SEQEND
  8
0
  5
B79
  0
POLYLINE
  8
43
  6
CONTINUOUS
  5
B7A
 66
     1
 10
0.0
 20
0.0
 30
0.0
  0
VERTEX
  8
43
  6
CONTINUOUS
  5
B7B
 10
15190.91
 20
49193.99
 30
0.0
  0
VERTEX
  8
43
  6
CONTINUOUS
  5
B7C
 10
15186.76
 20
49191.71
 30
0.0
  0
VERTEX
  8
43
  6
CONTINUOUS
  5
B7D
 10
15187.9
 20
49195.81
 30
0.0
  0
VERTEX
  8
43
  6
CONTINUOUS
  5
B7E
 10
15190.91
 20
49193.99
 30
0.0
  0
SEQEND
  8
0
  5
B7F
  0
POLYLINE
  8
43
  6
CONTINUOUS
  5
B80
 66
     1
 10
0.0
 20
0.0
 30
0.0
  0
VERTEX
  8
43
  6
CONTINUOUS
  5
B81
 10
15182.57
 20
49540.77
 30
0.0
  0
VERTEX
  8
43
  6
CONTINUOUS
  5
B82
 10
15184.92
 20
49536.66
 30
0.0
  0
VERTEX
  8
43
  6
CONTINUOUS
  5
B83
 10
15180.8
 20
49537.73
 30
0.0
  0
VERTEX
  8
43
  6
CONTINUOUS
  5
B84
 10
15182.57
 20
49540.77
 30
0.0
  0
SEQEND
  8
0
  5
B85
  0
POLYLINE
  8
43
  6
CONTINUOUS
  5
B86
 66
     1
 10
0.0
 20
0.0
 30
0.0
  0
VERTEX
  8
43
  6
CONTINUOUS
  5
B87
 10
15130.73
 20
49515.06
 30
0.0
  0
VERTEX
  8
43
  6
CONTINUOUS
  5
B88
 10
15134.88
 20
49517.34
 30
0.0
  0
VERTEX
  8
43
  6
CONTINUOUS
  5
B89
 10
15133.74
 20
49513.24
 30
0.0
  0
VERTEX
  8
43
  6
CONTINUOUS
  5
B8A
 10
15130.73
 20
49515.06
 30
0.0
  0
SEQEND
  8
0
  5
B8B
  0
POLYLINE
  8
43
  6
CONTINUOUS
  5
B8C
 66
     1
 10
0.0
 20
0.0
 30
0.0
  0
VERTEX
  8
43
  6
CONTINUOUS
  5
B8D
 10
15130.73
 20
49496.74
 30
0.0
  0
VERTEX
  8
43
  6
CONTINUOUS
  5
B8E
 10
15134.88
 20
49499.02
 30
0.0
  0
VERTEX
  8
43
  6
CONTINUOUS
  5
B8F
 10
15133.74
 20
49494.92
 30
0.0
  0
VERTEX
  8
43
  6
CONTINUOUS
  5
B90
 10
15130.73
 20
49496.74
 30
0.0
  0
SEQEND
  8
0
  5
B91
  0
POLYLINE
  8
43
  6
CONTINUOUS
  5
B92
 66
     1
 10
0.0
 20
0.0
 30
0.0
  0
VERTEX
  8
43
  6
CONTINUOUS
  5
B93
 10
15130.73
 20
49480.08
 30
0.0
  0
VERTEX
  8
43
  6
CONTINUOUS
  5
B94
 10
15134.88
 20
49482.36
 30
0.0
  0
VERTEX
  8
43
  6
CONTINUOUS
  5
B95
 10
15133.74
 20
49478.26
 30
0.0
  0
VERTEX
  8
43
  6
CONTINUOUS
  5
B96
 10
15130.73
 20
49480.08
 30
0.0
  0
SEQEND
  8
0
  5
B97
  0
POLYLINE
  8
43
  6
CONTINUOUS
  5
B98
 66
     1
 10
0.0
 20
0.0
 30
0.0
  0
VERTEX
  8
43
  6
CONTINUOUS
  5
B99
 10
15131.56
 20
49460.1
 30
0.0
  0
VERTEX
  8
43
  6
CONTINUOUS
  5
B9A
 10
15135.71
 20
49462.38
 30
0.0
  0
VERTEX
  8
43
  6
CONTINUOUS
  5
B9B
 10
15134.57
 20
49458.28
 30
0.0
  0
VERTEX
  8
43
  6
CONTINUOUS
  5
B9C
 10
15131.56
 20
49460.1
 30
0.0
  0
SEQEND
  8
0
  5
B9D
  0
POLYLINE
  8
43
  6
CONTINUOUS
  5
B9E
 66
     1
 10
0.0
 20
0.0
 30
0.0
  0
VERTEX
  8
43
  6
CONTINUOUS
  5
B9F
 10
15130.73
 20
49440.95
 30
0.0
  0
VERTEX
  8
43
  6
CONTINUOUS
  5
BA0
 10
15134.88
 20
49443.23
 30
0.0
  0
VERTEX
  8
43
  6
CONTINUOUS
  5
BA1
 10
15133.74
 20
49439.13
 30
0.0
  0
VERTEX
  8
43
  6
CONTINUOUS
  5
BA2
 10
15130.73
 20
49440.95
 30
0.0
  0
SEQEND
  8
0
  5
BA3
  0
POLYLINE
  8
43
  6
CONTINUOUS
  5
BA4
 66
     1
 10
0.0
 20
0.0
 30
0.0
  0
VERTEX
  8
43
  6
CONTINUOUS
  5
BA5
 10
15131.56
 20
49402.64
 30
0.0
  0
VERTEX
  8
43
  6
CONTINUOUS
  5
BA6
 10
15135.71
 20
49404.92
 30
0.0
  0
VERTEX
  8
43
  6
CONTINUOUS
  5
BA7
 10
15134.57
 20
49400.82
 30
0.0
  0
VERTEX
  8
43
  6
CONTINUOUS
  5
BA8
 10
15131.56
 20
49402.64
 30
0.0
  0
SEQEND
  8
0
  5
BA9
  0
POLYLINE
  8
43
  6
CONTINUOUS
  5
BAA
 66
     1
 10
0.0
 20
0.0
 30
0.0
  0
VERTEX
  8
43
  6
CONTINUOUS
  5
BAB
 10
15132.39
 20
49384.33
 30
0.0
  0
VERTEX
  8
43
  6
CONTINUOUS
  5
BAC
 10
15136.54
 20
49386.61
 30
0.0
  0
VERTEX
  8
43
  6
CONTINUOUS
  5
BAD
 10
15135.4
 20
49382.51
 30
0.0
  0
VERTEX
  8
43
  6
CONTINUOUS
  5
BAE
 10
15132.39
 20
49384.33
 30
0.0
  0
SEQEND
  8
0
  5
BAF
  0
POLYLINE
  8
43
  6
CONTINUOUS
  5
BB0
 66
     1
 10
0.0
 20
0.0
 30
0.0
  0
VERTEX
  8
43
  6
CONTINUOUS
  5
BB1
 10
15130.73
 20
49365.17
 30
0.0
  0
VERTEX
  8
43
  6
CONTINUOUS
  5
BB2
 10
15134.88
 20
49367.45
 30
0.0
  0
VERTEX
  8
43
  6
CONTINUOUS
  5
BB3
 10
15133.74
 20
49363.35
 30
0.0
  0
VERTEX
  8
43
  6
CONTINUOUS
  5
BB4
 10
15130.73
 20
49365.17
 30
0.0
  0
SEQEND
  8
0
  5
BB5
  0
POLYLINE
  8
43
  6
CONTINUOUS
  5
BB6
 66
     1
 10
0.0
 20
0.0
 30
0.0
  0
VERTEX
  8
43
  6
CONTINUOUS
  5
BB7
 10
15130.73
 20
49307.72
 30
0.0
  0
VERTEX
  8
43
  6
CONTINUOUS
  5
BB8
 10
15134.88
 20
49310.0
 30
0.0
  0
VERTEX
  8
43
  6
CONTINUOUS
  5
BB9
 10
15133.74
 20
49305.9
 30
0.0
  0
VERTEX
  8
43
  6
CONTINUOUS
  5
BBA
 10
15130.73
 20
49307.72
 30
0.0
  0
SEQEND
  8
0
  5
BBB
  0
POLYLINE
  8
43
  6
CONTINUOUS
  5
BBC
 66
     1
 10
0.0
 20
0.0
 30
0.0
  0
VERTEX
  8
43
  6
CONTINUOUS
  5
BBD
 10
15129.89
 20
49289.4
 30
0.0
  0
VERTEX
  8
43
  6
CONTINUOUS
  5
BBE
 10
15134.04
 20
49291.68
 30
0.0
  0
VERTEX
  8
43
  6
CONTINUOUS
  5
BBF
 10
15132.9
 20
49287.58
 30
0.0
  0
VERTEX
  8
43
  6
CONTINUOUS
  5
BC0
 10
15129.89
 20
49289.4
 30
0.0
  0
SEQEND
  8
0
  5
BC1
  0
POLYLINE
  8
43
  6
CONTINUOUS
  5
BC2
 66
     1
 10
0.0
 20
0.0
 30
0.0
  0
VERTEX
  8
43
  6
CONTINUOUS
  5
BC3
 10
15129.89
 20
49269.42
 30
0.0
  0
VERTEX
  8
43
  6
CONTINUOUS
  5
BC4
 10
15134.04
 20
49271.7
 30
0.0
  0
VERTEX
  8
43
  6
CONTINUOUS
  5
BC5
 10
15132.9
 20
49267.6
 30
0.0
  0
VERTEX
  8
43
  6
CONTINUOUS
  5
BC6
 10
15129.89
 20
49269.42
 30
0.0
  0
SEQEND
  8
0
  5
BC7
  0
POLYLINE
  8
43
  6
CONTINUOUS
  5
BC8
 66
     1
 10
0.0
 20
0.0
 30
0.0
  0
VERTEX
  8
43
  6
CONTINUOUS
  5
BC9
 10
15127.4
 20
49251.93
 30
0.0
  0
VERTEX
  8
43
  6
CONTINUOUS
  5
BCA
 10
15131.55
 20
49254.21
 30
0.0
  0
VERTEX
  8
43
  6
CONTINUOUS
  5
BCB
 10
15130.41
 20
49250.11
 30
0.0
  0
VERTEX
  8
43
  6
CONTINUOUS
  5
BCC
 10
15127.4
 20
49251.93
 30
0.0
  0
SEQEND
  8
0
  5
BCD
  0
POLYLINE
  8
43
  6
CONTINUOUS
  5
BCE
 66
     1
 10
0.0
 20
0.0
 30
0.0
  0
VERTEX
  8
43
  6
CONTINUOUS
  5
BCF
 10
15129.06
 20
49233.61
 30
0.0
  0
VERTEX
  8
43
  6
CONTINUOUS
  5
BD0
 10
15133.21
 20
49235.89
 30
0.0
  0
VERTEX
  8
43
  6
CONTINUOUS
  5
BD1
 10
15132.07
 20
49231.79
 30
0.0
  0
VERTEX
  8
43
  6
CONTINUOUS
  5
BD2
 10
15129.06
 20
49233.61
 30
0.0
  0
SEQEND
  8
0
  5
BD3
  0
POLYLINE
  8
43
  6
CONTINUOUS
  5
BD4
 66
     1
 10
0.0
 20
0.0
 30
0.0
  0
VERTEX
  8
43
  6
CONTINUOUS
  5
BD5
 10
15129.06
 20
49212.79
 30
0.0
  0
VERTEX
  8
43
  6
CONTINUOUS
  5
BD6
 10
15133.21
 20
49215.07
 30
0.0
  0
VERTEX
  8
43
  6
CONTINUOUS
  5
BD7
 10
15132.07
 20
49210.97
 30
0.0
  0
VERTEX
  8
43
  6
CONTINUOUS
  5
BD8
 10
15129.06
 20
49212.79
 30
0.0
  0
SEQEND
  8
0
  5
BD9
  0
POLYLINE
  8
43
  6
CONTINUOUS
  5
BDA
 66
     1
 10
0.0
 20
0.0
 30
0.0
  0
VERTEX
  8
43
  6
CONTINUOUS
  5
BDB
 10
15129.89
 20
49535.87
 30
0.0
  0
VERTEX
  8
43
  6
CONTINUOUS
  5
BDC
 10
15134.04
 20
49538.15
 30
0.0
  0
VERTEX
  8
43
  6
CONTINUOUS
  5
BDD
 10
15132.9
 20
49534.05
 30
0.0
  0
VERTEX
  8
43
  6
CONTINUOUS
  5
BDE
 10
15129.89
 20
49535.87
 30
0.0
  0
SEQEND
  8
0
  5
BDF
  0
POLYLINE
  8
43
  6
CONTINUOUS
  5
BE0
 66
     1
 10
0.0
 20
0.0
 30
0.0
  0
VERTEX
  8
43
  6
CONTINUOUS
  5
BE1
 10
15130.73
 20
49346.86
 30
0.0
  0
VERTEX
  8
43
  6
CONTINUOUS
  5
BE2
 10
15134.88
 20
49349.14
 30
0.0
  0
VERTEX
  8
43
  6
CONTINUOUS
  5
BE3
 10
15133.74
 20
49345.04
 30
0.0
  0
VERTEX
  8
43
  6
CONTINUOUS
  5
BE4
 10
15130.73
 20
49346.86
 30
0.0
  0
SEQEND
  8
0
  5
BE5
  0
POLYLINE
  8
43
  6
CONTINUOUS
  5
BE6
 66
     1
 10
0.0
 20
0.0
 30
0.0
  0
VERTEX
  8
43
  6
CONTINUOUS
  5
BE7
 10
15129.89
 20
49327.7
 30
0.0
  0
VERTEX
  8
43
  6
CONTINUOUS
  5
BE8
 10
15134.04
 20
49329.98
 30
0.0
  0
VERTEX
  8
43
  6
CONTINUOUS
  5
BE9
 10
15132.9
 20
49325.88
 30
0.0
  0
VERTEX
  8
43
  6
CONTINUOUS
  5
BEA
 10
15129.89
 20
49327.7
 30
0.0
  0
SEQEND
  8
0
  5
BEB
  0
POLYLINE
  8
43
  6
CONTINUOUS
  5
BEC
 66
     1
 10
0.0
 20
0.0
 30
0.0
  0
VERTEX
  8
43
  6
CONTINUOUS
  5
BED
 10
15129.06
 20
49194.48
 30
0.0
  0
VERTEX
  8
43
  6
CONTINUOUS
  5
BEE
 10
15133.21
 20
49196.76
 30
0.0
  0
VERTEX
  8
43
  6
CONTINUOUS
  5
BEF
 10
15132.07
 20
49192.66
 30
0.0
  0
VERTEX
  8
43
  6
CONTINUOUS
  5
BF0
 10
15129.06
 20
49194.48
 30
0.0
  0
SEQEND
  8
0
  5
BF1
  0
POLYLINE
  8
43
  6
CONTINUOUS
  5
BF2
 66
     1
 10
0.0
 20
0.0
 30
0.0
  0
VERTEX
  8
43
  6
CONTINUOUS
  5
BF3
 10
15094.74
 20
49510.34
 30
0.0
  0
VERTEX
  8
43
  6
CONTINUOUS
  5
BF4
 10
15090.59
 20
49508.06
 30
0.0
  0
VERTEX
  8
43
  6
CONTINUOUS
  5
BF5
 10
15091.73
 20
49512.16
 30
0.0
  0
VERTEX
  8
43
  6
CONTINUOUS
  5
BF6
 10
15094.74
 20
49510.34
 30
0.0
  0
SEQEND
  8
0
  5
BF7
  0
POLYLINE
  8
43
  6
CONTINUOUS
  5
BF8
 66
     1
 10
0.0
 20
0.0
 30
0.0
  0
VERTEX
  8
43
  6
CONTINUOUS
  5
BF9
 10
15095.58
 20
49490.36
 30
0.0
  0
VERTEX
  8
43
  6
CONTINUOUS
  5
BFA
 10
15091.43
 20
49488.08
 30
0.0
  0
VERTEX
  8
43
  6
CONTINUOUS
  5
BFB
 10
15092.57
 20
49492.18
 30
0.0
  0
VERTEX
  8
43
  6
CONTINUOUS
  5
BFC
 10
15095.58
 20
49490.36
 30
0.0
  0
SEQEND
  8
0
  5
BFD
  0
POLYLINE
  8
43
  6
CONTINUOUS
  5
BFE
 66
     1
 10
0.0
 20
0.0
 30
0.0
  0
VERTEX
  8
43
  6
CONTINUOUS
  5
BFF
 10
15094.74
 20
49469.54
 30
0.0
  0
VERTEX
  8
43
  6
CONTINUOUS
  5
C00
 10
15090.59
 20
49467.26
 30
0.0
  0
VERTEX
  8
43
  6
CONTINUOUS
  5
C01
 10
15091.73
 20
49471.36
 30
0.0
  0
VERTEX
  8
43
  6
CONTINUOUS
  5
C02
 10
15094.74
 20
49469.54
 30
0.0
  0
SEQEND
  8
0
  5
C03
  0
POLYLINE
  8
43
  6
CONTINUOUS
  5
C04
 66
     1
 10
0.0
 20
0.0
 30
0.0
  0
VERTEX
  8
43
  6
CONTINUOUS
  5
C05
 10
15093.91
 20
49442.89
 30
0.0
  0
VERTEX
  8
43
  6
CONTINUOUS
  5
C06
 10
15089.76
 20
49440.61
 30
0.0
  0
VERTEX
  8
43
  6
CONTINUOUS
  5
C07
 10
15090.9
 20
49444.71
 30
0.0
  0
VERTEX
  8
43
  6
CONTINUOUS
  5
C08
 10
15093.91
 20
49442.89
 30
0.0
  0
SEQEND
  8
0
  5
C09
  0
POLYLINE
  8
43
  6
CONTINUOUS
  5
C0A
 66
     1
 10
0.0
 20
0.0
 30
0.0
  0
VERTEX
  8
43
  6
CONTINUOUS
  5
C0B
 10
15093.08
 20
49427.9
 30
0.0
  0
VERTEX
  8
43
  6
CONTINUOUS
  5
C0C
 10
15088.93
 20
49425.62
 30
0.0
  0
VERTEX
  8
43
  6
CONTINUOUS
  5
C0D
 10
15090.07
 20
49429.72
 30
0.0
  0
VERTEX
  8
43
  6
CONTINUOUS
  5
C0E
 10
15093.08
 20
49427.9
 30
0.0
  0
SEQEND
  8
0
  5
C0F
  0
POLYLINE
  8
43
  6
CONTINUOUS
  5
C10
 66
     1
 10
0.0
 20
0.0
 30
0.0
  0
VERTEX
  8
43
  6
CONTINUOUS
  5
C11
 10
15093.08
 20
49420.41
 30
0.0
  0
VERTEX
  8
43
  6
CONTINUOUS
  5
C12
 10
15088.93
 20
49418.13
 30
0.0
  0
VERTEX
  8
43
  6
CONTINUOUS
  5
C13
 10
15090.07
 20
49422.23
 30
0.0
  0
VERTEX
  8
43
  6
CONTINUOUS
  5
C14
 10
15093.08
 20
49420.41
 30
0.0
  0
SEQEND
  8
0
  5
C15
  0
POLYLINE
  8
43
  6
CONTINUOUS
  5
C16
 66
     1
 10
0.0
 20
0.0
 30
0.0
  0
VERTEX
  8
43
  6
CONTINUOUS
  5
C17
 10
15093.91
 20
49399.59
 30
0.0
  0
VERTEX
  8
43
  6
CONTINUOUS
  5
C18
 10
15089.76
 20
49397.31
 30
0.0
  0
VERTEX
  8
43
  6
CONTINUOUS
  5
C19
 10
15090.9
 20
49401.41
 30
0.0
  0
VERTEX
  8
43
  6
CONTINUOUS
  5
C1A
 10
15093.91
 20
49399.59
 30
0.0
  0
SEQEND
  8
0
  5
C1B
  0
POLYLINE
  8
43
  6
CONTINUOUS
  5
C1C
 66
     1
 10
0.0
 20
0.0
 30
0.0
  0
VERTEX
  8
43
  6
CONTINUOUS
  5
C1D
 10
15095.58
 20
49377.11
 30
0.0
  0
VERTEX
  8
43
  6
CONTINUOUS
  5
C1E
 10
15091.43
 20
49374.83
 30
0.0
  0
VERTEX
  8
43
  6
CONTINUOUS
  5
C1F
 10
15092.57
 20
49378.93
 30
0.0
  0
VERTEX
  8
43
  6
CONTINUOUS
  5
C20
 10
15095.58
 20
49377.11
 30
0.0
  0
SEQEND
  8
0
  5
C21
  0
POLYLINE
  8
43
  6
CONTINUOUS
  5
C22
 66
     1
 10
0.0
 20
0.0
 30
0.0
  0
VERTEX
  8
43
  6
CONTINUOUS
  5
C23
 10
15093.08
 20
49313.83
 30
0.0
  0
VERTEX
  8
43
  6
CONTINUOUS
  5
C24
 10
15088.93
 20
49311.55
 30
0.0
  0
VERTEX
  8
43
  6
CONTINUOUS
  5
C25
 10
15090.07
 20
49315.65
 30
0.0
  0
VERTEX
  8
43
  6
CONTINUOUS
  5
C26
 10
15093.08
 20
49313.83
 30
0.0
  0
SEQEND
  8
0
  5
C27
  0
POLYLINE
  8
43
  6
CONTINUOUS
  5
C28
 66
     1
 10
0.0
 20
0.0
 30
0.0
  0
VERTEX
  8
43
  6
CONTINUOUS
  5
C29
 10
15093.08
 20
49291.35
 30
0.0
  0
VERTEX
  8
43
  6
CONTINUOUS
  5
C2A
 10
15088.93
 20
49289.07
 30
0.0
  0
VERTEX
  8
43
  6
CONTINUOUS
  5
C2B
 10
15090.07
 20
49293.17
 30
0.0
  0
VERTEX
  8
43
  6
CONTINUOUS
  5
C2C
 10
15093.08
 20
49291.35
 30
0.0
  0
SEQEND
  8
0
  5
C2D
  0
POLYLINE
  8
43
  6
CONTINUOUS
  5
C2E
 66
     1
 10
0.0
 20
0.0
 30
0.0
  0
VERTEX
  8
43
  6
CONTINUOUS
  5
C2F
 10
15093.08
 20
49266.37
 30
0.0
  0
VERTEX
  8
43
  6
CONTINUOUS
  5
C30
 10
15088.93
 20
49264.09
 30
0.0
  0
VERTEX
  8
43
  6
CONTINUOUS
  5
C31
 10
15090.07
 20
49268.19
 30
0.0
  0
VERTEX
  8
43
  6
CONTINUOUS
  5
C32
 10
15093.08
 20
49266.37
 30
0.0
  0
SEQEND
  8
0
  5
C33
  0
POLYLINE
  8
43
  6
CONTINUOUS
  5
C34
 66
     1
 10
0.0
 20
0.0
 30
0.0
  0
VERTEX
  8
43
  6
CONTINUOUS
  5
C35
 10
15092.25
 20
49245.55
 30
0.0
  0
VERTEX
  8
43
  6
CONTINUOUS
  5
C36
 10
15088.1
 20
49243.27
 30
0.0
  0
VERTEX
  8
43
  6
CONTINUOUS
  5
C37
 10
15089.24
 20
49247.37
 30
0.0
  0
VERTEX
  8
43
  6
CONTINUOUS
  5
C38
 10
15092.25
 20
49245.55
 30
0.0
  0
SEQEND
  8
0
  5
C39
  0
POLYLINE
  8
43
  6
CONTINUOUS
  5
C3A
 66
     1
 10
0.0
 20
0.0
 30
0.0
  0
VERTEX
  8
43
  6
CONTINUOUS
  5
C3B
 10
15093.08
 20
49225.56
 30
0.0
  0
VERTEX
  8
43
  6
CONTINUOUS
  5
C3C
 10
15088.93
 20
49223.28
 30
0.0
  0
VERTEX
  8
43
  6
CONTINUOUS
  5
C3D
 10
15090.07
 20
49227.38
 30
0.0
  0
VERTEX
  8
43
  6
CONTINUOUS
  5
C3E
 10
15093.08
 20
49225.56
 30
0.0
  0
SEQEND
  8
0
  5
C3F
  0
POLYLINE
  8
43
  6
CONTINUOUS
  5
C40
 66
     1
 10
0.0
 20
0.0
 30
0.0
  0
VERTEX
  8
43
  6
CONTINUOUS
  5
C41
 10
15093.91
 20
49203.91
 30
0.0
  0
VERTEX
  8
43
  6
CONTINUOUS
  5
C42
 10
15089.76
 20
49201.63
 30
0.0
  0
VERTEX
  8
43
  6
CONTINUOUS
  5
C43
 10
15090.9
 20
49205.73
 30
0.0
  0
VERTEX
  8
43
  6
CONTINUOUS
  5
C44
 10
15093.91
 20
49203.91
 30
0.0
  0
SEQEND
  8
0
  5
C45
  0
POLYLINE
  8
43
  6
CONTINUOUS
  5
C46
 66
     1
 10
0.0
 20
0.0
 30
0.0
  0
VERTEX
  8
43
  6
CONTINUOUS
  5
C47
 10
15094.74
 20
49531.99
 30
0.0
  0
VERTEX
  8
43
  6
CONTINUOUS
  5
C48
 10
15090.59
 20
49529.71
 30
0.0
  0
VERTEX
  8
43
  6
CONTINUOUS
  5
C49
 10
15091.73
 20
49533.81
 30
0.0
  0
VERTEX
  8
43
  6
CONTINUOUS
  5
C4A
 10
15094.74
 20
49531.99
 30
0.0
  0
SEQEND
  8
0
  5
C4B
  0
POLYLINE
  8
43
  6
CONTINUOUS
  5
C4C
 66
     1
 10
0.0
 20
0.0
 30
0.0
  0
VERTEX
  8
43
  6
CONTINUOUS
  5
C4D
 10
15094.74
 20
49354.63
 30
0.0
  0
VERTEX
  8
43
  6
CONTINUOUS
  5
C4E
 10
15090.59
 20
49352.35
 30
0.0
  0
VERTEX
  8
43
  6
CONTINUOUS
  5
C4F
 10
15091.73
 20
49356.45
 30
0.0
  0
VERTEX
  8
43
  6
CONTINUOUS
  5
C50
 10
15094.74
 20
49354.63
 30
0.0
  0
SEQEND
  8
0
  5
C51
  0
POLYLINE
  8
43
  6
CONTINUOUS
  5
C52
 66
     1
 10
0.0
 20
0.0
 30
0.0
  0
VERTEX
  8
43
  6
CONTINUOUS
  5
C53
 10
15093.91
 20
49334.64
 30
0.0
  0
VERTEX
  8
43
  6
CONTINUOUS
  5
C54
 10
15089.76
 20
49332.36
 30
0.0
  0
VERTEX
  8
43
  6
CONTINUOUS
  5
C55
 10
15090.9
 20
49336.46
 30
0.0
  0
VERTEX
  8
43
  6
CONTINUOUS
  5
C56
 10
15093.91
 20
49334.64
 30
0.0
  0
SEQEND
  8
0
  5
C57
  0
POLYLINE
  8
43
  6
CONTINUOUS
  5
C58
 66
     1
 10
0.0
 20
0.0
 30
0.0
  0
VERTEX
  8
43
  6
CONTINUOUS
  5
C59
 10
15093.08
 20
49174.77
 30
0.0
  0
VERTEX
  8
43
  6
CONTINUOUS
  5
C5A
 10
15088.93
 20
49172.49
 30
0.0
  0
VERTEX
  8
43
  6
CONTINUOUS
  5
C5B
 10
15090.07
 20
49176.59
 30
0.0
  0
VERTEX
  8
43
  6
CONTINUOUS
  5
C5C
 10
15093.08
 20
49174.77
 30
0.0
  0
SEQEND
  8
0
  5
C5D
  0
POLYLINE
  8
43
  6
CONTINUOUS
  5
C5E
 66
     1
 10
0.0
 20
0.0
 30
0.0
  0
VERTEX
  8
43
  6
CONTINUOUS
  5
C5F
 10
15169.14
 20
49154.02
 30
0.0
  0
VERTEX
  8
43
  6
CONTINUOUS
  5
C60
 10
15166.79
 20
49158.13
 30
0.0
  0
VERTEX
  8
43
  6
CONTINUOUS
  5
C61
 10
15170.91
 20
49157.06
 30
0.0
  0
VERTEX
  8
43
  6
CONTINUOUS
  5
C62
 10
15169.14
 20
49154.02
 30
0.0
  0
SEQEND
  8
0
  5
C63
  0
POLYLINE
  8
43
  6
CONTINUOUS
  5
C64
 66
     1
 10
0.0
 20
0.0
 30
0.0
  0
VERTEX
  8
43
  6
CONTINUOUS
  5
C65
 10
15149.56
 20
49153.78
 30
0.0
  0
VERTEX
  8
43
  6
CONTINUOUS
  5
C66
 10
15147.21
 20
49157.89
 30
0.0
  0
VERTEX
  8
43
  6
CONTINUOUS
  5
C67
 10
15151.33
 20
49156.82
 30
0.0
  0
VERTEX
  8
43
  6
CONTINUOUS
  5
C68
 10
15149.56
 20
49153.78
 30
0.0
  0
SEQEND
  8
0
  5
C69
  0
POLYLINE
  8
43
  6
CONTINUOUS
  5
C6A
 66
     1
 10
0.0
 20
0.0
 30
0.0
  0
VERTEX
  8
43
  6
CONTINUOUS
  5
C6B
 10
15188.7
 20
49154.28
 30
0.0
  0
VERTEX
  8
43
  6
CONTINUOUS
  5
C6C
 10
15186.35
 20
49158.39
 30
0.0
  0
VERTEX
  8
43
  6
CONTINUOUS
  5
C6D
 10
15190.47
 20
49157.32
 30
0.0
  0
VERTEX
  8
43
  6
CONTINUOUS
  5
C6E
 10
15188.7
 20
49154.28
 30
0.0
  0
SEQEND
  8
0
  5
C6F
  0
POLYLINE
  8
43
  6
CONTINUOUS
  5
C70
 66
     1
 10
0.0
 20
0.0
 30
0.0
  0
VERTEX
  8
43
  6
CONTINUOUS
  5
C71
 10
15130.48
 20
49153.56
 30
0.0
  0
VERTEX
  8
43
  6
CONTINUOUS
  5
C72
 10
15128.13
 20
49157.67
 30
0.0
  0
VERTEX
  8
43
  6
CONTINUOUS
  5
C73
 10
15132.25
 20
49156.6
 30
0.0
  0
VERTEX
  8
43
  6
CONTINUOUS
  5
C74
 10
15130.48
 20
49153.56
 30
0.0
  0
SEQEND
  8
0
  5
C75
  0
POLYLINE
  8
43
  6
CONTINUOUS
  5
C76
 66
     1
 10
0.0
 20
0.0
 30
0.0
  0
VERTEX
  8
43
  6
CONTINUOUS
  5
C77
 10
15083.07
 20
49149.29
 30
0.0
  0
VERTEX
  8
43
  6
CONTINUOUS
  5
C78
 10
15080.72
 20
49153.4
 30
0.0
  0
VERTEX
  8
43
  6
CONTINUOUS
  5
C79
 10
15084.84
 20
49152.33
 30
0.0
  0
VERTEX
  8
43
  6
CONTINUOUS
  5
C7A
 10
15083.07
 20
49149.29
 30
0.0
  0
SEQEND
  8
0
  5
C7B
  0
POLYLINE
  8
43
  6
CONTINUOUS
  5
C7C
 66
     1
 10
0.0
 20
0.0
 30
0.0
  0
VERTEX
  8
43
  6
CONTINUOUS
  5
C7D
 10
14929.7
 20
49153.17
 30
0.0
  0
VERTEX
  8
43
  6
CONTINUOUS
  5
C7E
 10
14927.35
 20
49157.28
 30
0.0
  0
VERTEX
  8
43
  6
CONTINUOUS
  5
C7F
 10
14931.47
 20
49156.21
 30
0.0
  0
VERTEX
  8
43
  6
CONTINUOUS
  5
C80
 10
14929.7
 20
49153.17
 30
0.0
  0
SEQEND
  8
0
  5
C81
  0
POLYLINE
  8
43
  6
CONTINUOUS
  5
C82
 66
     1
 10
0.0
 20
0.0
 30
0.0
  0
VERTEX
  8
43
  6
CONTINUOUS
  5
C83
 10
14898.63
 20
49152.78
 30
0.0
  0
VERTEX
  8
43
  6
CONTINUOUS
  5
C84
 10
14896.28
 20
49156.89
 30
0.0
  0
VERTEX
  8
43
  6
CONTINUOUS
  5
C85
 10
14900.4
 20
49155.82
 30
0.0
  0
VERTEX
  8
43
  6
CONTINUOUS
  5
C86
 10
14898.63
 20
49152.78
 30
0.0
  0
SEQEND
  8
0
  5
C87
  0
POLYLINE
  8
43
  6
CONTINUOUS
  5
C88
 66
     1
 10
0.0
 20
0.0
 30
0.0
  0
VERTEX
  8
43
  6
CONTINUOUS
  5
C89
 10
15306.07
 20
49222.35
 30
0.0
  0
VERTEX
  8
43
  6
CONTINUOUS
  5
C8A
 10
15309.74
 20
49219.36
 30
0.0
  0
VERTEX
  8
43
  6
CONTINUOUS
  5
C8B
 10
15305.51
 20
49218.88
 30
0.0
  0
VERTEX
  8
43
  6
CONTINUOUS
  5
C8C
 10
15306.07
 20
49222.35
 30
0.0
  0
SEQEND
  8
0
  5
C8D
  0
POLYLINE
  8
43
  6
CONTINUOUS
  5
C8E
 66
     1
 10
0.0
 20
0.0
 30
0.0
  0
VERTEX
  8
43
  6
CONTINUOUS
  5
C8F
 10
15310.34
 20
49231.98
 30
0.0
  0
VERTEX
  8
43
  6
CONTINUOUS
  5
C90
 10
15315.07
 20
49231.79
 30
0.0
  0
VERTEX
  8
43
  6
CONTINUOUS
  5
C91
 10
15311.98
 20
49228.87
 30
0.0
  0
VERTEX
  8
43
  6
CONTINUOUS
  5
C92
 10
15310.34
 20
49231.98
 30
0.0
  0
SEQEND
  8
0
  5
C93
  0
POLYLINE
  8
43
  6
CONTINUOUS
  5
C94
 66
     1
 10
0.0
 20
0.0
 30
0.0
  0
VERTEX
  8
43
  6
CONTINUOUS
  5
C95
 10
15269.32
 20
49222.05
 30
0.0
  0
VERTEX
  8
43
  6
CONTINUOUS
  5
C96
 10
15271.67
 20
49217.94
 30
0.0
  0
VERTEX
  8
43
  6
CONTINUOUS
  5
C97
 10
15267.55
 20
49219.01
 30
0.0
  0
VERTEX
  8
43
  6
CONTINUOUS
  5
C98
 10
15269.32
 20
49222.05
 30
0.0
  0
SEQEND
  8
0
  5
C99
  0
POLYLINE
  8
43
  6
CONTINUOUS
  5
C9A
 66
     1
 10
0.0
 20
0.0
 30
0.0
  0
VERTEX
  8
43
  6
CONTINUOUS
  5
C9B
 10
15249.49
 20
49229.06
 30
0.0
  0
VERTEX
  8
43
  6
CONTINUOUS
  5
C9C
 10
15251.73
 20
49224.89
 30
0.0
  0
VERTEX
  8
43
  6
CONTINUOUS
  5
C9D
 10
15247.64
 20
49226.07
 30
0.0
  0
VERTEX
  8
43
  6
CONTINUOUS
  5
C9E
 10
15249.49
 20
49229.06
 30
0.0
  0
SEQEND
  8
0
  5
C9F
  0
POLYLINE
  8
43
  6
CONTINUOUS
  5
CA0
 66
     1
 10
0.0
 20
0.0
 30
0.0
  0
VERTEX
  8
43
  6
CONTINUOUS
  5
CA1
 10
15222.51
 20
49217.68
 30
0.0
  0
VERTEX
  8
43
  6
CONTINUOUS
  5
CA2
 10
15226.66
 20
49219.96
 30
0.0
  0
VERTEX
  8
43
  6
CONTINUOUS
  5
CA3
 10
15225.52
 20
49215.86
 30
0.0
  0
VERTEX
  8
43
  6
CONTINUOUS
  5
CA4
 10
15222.51
 20
49217.68
 30
0.0
  0
SEQEND
  8
0
  5
CA5
  0
POLYLINE
  8
43
  6
CONTINUOUS
  5
CA6
 66
     1
 10
0.0
 20
0.0
 30
0.0
  0
VERTEX
  8
43
  6
CONTINUOUS
  5
CA7
 10
15311.44
 20
49155.5
 30
0.0
  0
VERTEX
  8
43
  6
CONTINUOUS
  5
CA8
 10
15309.09
 20
49159.61
 30
0.0
  0
VERTEX
  8
43
  6
CONTINUOUS
  5
CA9
 10
15313.21
 20
49158.54
 30
0.0
  0
VERTEX
  8
43
  6
CONTINUOUS
  5
CAA
 10
15311.44
 20
49155.5
 30
0.0
  0
SEQEND
  8
0
  5
CAB
  0
POLYLINE
  8
43
  6
CONTINUOUS
  5
CAC
 66
     1
 10
0.0
 20
0.0
 30
0.0
  0
VERTEX
  8
43
  6
CONTINUOUS
  5
CAD
 10
15289.92
 20
49155.3
 30
0.0
  0
VERTEX
  8
43
  6
CONTINUOUS
  5
CAE
 10
15287.57
 20
49159.41
 30
0.0
  0
VERTEX
  8
43
  6
CONTINUOUS
  5
CAF
 10
15291.69
 20
49158.34
 30
0.0
  0
VERTEX
  8
43
  6
CONTINUOUS
  5
CB0
 10
15289.92
 20
49155.3
 30
0.0
  0
SEQEND
  8
0
  5
CB1
  0
POLYLINE
  8
43
  6
CONTINUOUS
  5
CB2
 66
     1
 10
0.0
 20
0.0
 30
0.0
  0
VERTEX
  8
43
  6
CONTINUOUS
  5
CB3
 10
15268.44
 20
49156.41
 30
0.0
  0
VERTEX
  8
43
  6
CONTINUOUS
  5
CB4
 10
15266.09
 20
49160.52
 30
0.0
  0
VERTEX
  8
43
  6
CONTINUOUS
  5
CB5
 10
15270.21
 20
49159.45
 30
0.0
  0
VERTEX
  8
43
  6
CONTINUOUS
  5
CB6
 10
15268.44
 20
49156.41
 30
0.0
  0
SEQEND
  8
0
  5
CB7
  0
POLYLINE
  8
43
  6
CONTINUOUS
  5
CB8
 66
     1
 10
0.0
 20
0.0
 30
0.0
  0
VERTEX
  8
43
  6
CONTINUOUS
  5
CB9
 10
15238.12
 20
49154.82
 30
0.0
  0
VERTEX
  8
43
  6
CONTINUOUS
  5
CBA
 10
15235.77
 20
49158.93
 30
0.0
  0
VERTEX
  8
43
  6
CONTINUOUS
  5
CBB
 10
15239.89
 20
49157.86
 30
0.0
  0
VERTEX
  8
43
  6
CONTINUOUS
  5
CBC
 10
15238.12
 20
49154.82
 30
0.0
  0
SEQEND
  8
0
  5
CBD
  0
POLYLINE
  8
43
  6
CONTINUOUS
  5
CBE
 66
     1
 10
0.0
 20
0.0
 30
0.0
  0
VERTEX
  8
43
  6
CONTINUOUS
  5
CBF
 10
15305.95
 20
49270.12
 30
0.0
  0
VERTEX
  8
43
  6
CONTINUOUS
  5
CC0
 10
15310.1
 20
49272.4
 30
0.0
  0
VERTEX
  8
43
  6
CONTINUOUS
  5
CC1
 10
15308.96
 20
49268.3
 30
0.0
  0
VERTEX
  8
43
  6
CONTINUOUS
  5
CC2
 10
15305.95
 20
49270.12
 30
0.0
  0
SEQEND
  8
0
  5
CC3
  0
POLYLINE
  8
43
  6
CONTINUOUS
  5
CC4
 66
     1
 10
0.0
 20
0.0
 30
0.0
  0
VERTEX
  8
43
  6
CONTINUOUS
  5
CC5
 10
15306.12
 20
49288.12
 30
0.0
  0
VERTEX
  8
43
  6
CONTINUOUS
  5
CC6
 10
15310.27
 20
49290.4
 30
0.0
  0
VERTEX
  8
43
  6
CONTINUOUS
  5
CC7
 10
15309.13
 20
49286.3
 30
0.0
  0
VERTEX
  8
43
  6
CONTINUOUS
  5
CC8
 10
15306.12
 20
49288.12
 30
0.0
  0
SEQEND
  8
0
  5
CC9
  0
POLYLINE
  8
43
  6
CONTINUOUS
  5
CCA
 66
     1
 10
0.0
 20
0.0
 30
0.0
  0
VERTEX
  8
43
  6
CONTINUOUS
  5
CCB
 10
15306.29
 20
49306.12
 30
0.0
  0
VERTEX
  8
43
  6
CONTINUOUS
  5
CCC
 10
15310.44
 20
49308.4
 30
0.0
  0
VERTEX
  8
43
  6
CONTINUOUS
  5
CCD
 10
15309.3
 20
49304.3
 30
0.0
  0
VERTEX
  8
43
  6
CONTINUOUS
  5
CCE
 10
15306.29
 20
49306.12
 30
0.0
  0
SEQEND
  8
0
  5
CCF
  0
POLYLINE
  8
43
  6
CONTINUOUS
  5
CD0
 66
     1
 10
0.0
 20
0.0
 30
0.0
  0
VERTEX
  8
43
  6
CONTINUOUS
  5
CD1
 10
15306.42
 20
49324.2
 30
0.0
  0
VERTEX
  8
43
  6
CONTINUOUS
  5
CD2
 10
15310.57
 20
49326.48
 30
0.0
  0
VERTEX
  8
43
  6
CONTINUOUS
  5
CD3
 10
15309.43
 20
49322.38
 30
0.0
  0
VERTEX
  8
43
  6
CONTINUOUS
  5
CD4
 10
15306.42
 20
49324.2
 30
0.0
  0
SEQEND
  8
0
  5
CD5
  0
POLYLINE
  8
43
  6
CONTINUOUS
  5
CD6
 66
     1
 10
0.0
 20
0.0
 30
0.0
  0
VERTEX
  8
43
  6
CONTINUOUS
  5
CD7
 10
15318.47
 20
49342.9
 30
0.0
  0
VERTEX
  8
43
  6
CONTINUOUS
  5
CD8
 10
15322.58
 20
49345.25
 30
0.0
  0
VERTEX
  8
43
  6
CONTINUOUS
  5
CD9
 10
15321.51
 20
49341.13
 30
0.0
  0
VERTEX
  8
43
  6
CONTINUOUS
  5
CDA
 10
15318.47
 20
49342.9
 30
0.0
  0
SEQEND
  8
0
  5
CDB
  0
POLYLINE
  8
43
  6
CONTINUOUS
  5
CDC
 66
     1
 10
0.0
 20
0.0
 30
0.0
  0
VERTEX
  8
43
  6
CONTINUOUS
  5
CDD
 10
15322.12
 20
49357.44
 30
0.0
  0
VERTEX
  8
43
  6
CONTINUOUS
  5
CDE
 10
15326.27
 20
49359.72
 30
0.0
  0
VERTEX
  8
43
  6
CONTINUOUS
  5
CDF
 10
15325.13
 20
49355.62
 30
0.0
  0
VERTEX
  8
43
  6
CONTINUOUS
  5
CE0
 10
15322.12
 20
49357.44
 30
0.0
  0
SEQEND
  8
0
  5
CE1
  0
POLYLINE
  8
43
  6
CONTINUOUS
  5
CE2
 66
     1
 10
0.0
 20
0.0
 30
0.0
  0
VERTEX
  8
43
  6
CONTINUOUS
  5
CE3
 10
15318.58
 20
49372.18
 30
0.0
  0
VERTEX
  8
43
  6
CONTINUOUS
  5
CE4
 10
15320.14
 20
49376.65
 30
0.0
  0
VERTEX
  8
43
  6
CONTINUOUS
  5
CE5
 10
15322.04
 20
49372.84
 30
0.0
  0
VERTEX
  8
43
  6
CONTINUOUS
  5
CE6
 10
15318.58
 20
49372.18
 30
0.0
  0
SEQEND
  8
0
  5
CE7
  0
POLYLINE
  8
43
  6
CONTINUOUS
  5
CE8
 66
     1
 10
0.0
 20
0.0
 30
0.0
  0
VERTEX
  8
43
  6
CONTINUOUS
  5
CE9
 10
15302.63
 20
49380.14
 30
0.0
  0
VERTEX
  8
43
  6
CONTINUOUS
  5
CEA
 10
15300.5
 20
49384.37
 30
0.0
  0
VERTEX
  8
43
  6
CONTINUOUS
  5
CEB
 10
15304.56
 20
49383.08
 30
0.0
  0
VERTEX
  8
43
  6
CONTINUOUS
  5
CEC
 10
15302.63
 20
49380.14
 30
0.0
  0
SEQEND
  8
0
  5
CED
  0
POLYLINE
  8
43
  6
CONTINUOUS
  5
CEE
 66
     1
 10
0.0
 20
0.0
 30
0.0
  0
VERTEX
  8
43
  6
CONTINUOUS
  5
CEF
 10
15292.2
 20
49376.94
 30
0.0
  0
VERTEX
  8
43
  6
CONTINUOUS
  5
CF0
 10
15287.99
 20
49379.11
 30
0.0
  0
VERTEX
  8
43
  6
CONTINUOUS
  5
CF1
 10
15292.03
 20
49380.45
 30
0.0
  0
VERTEX
  8
43
  6
CONTINUOUS
  5
CF2
 10
15292.2
 20
49376.94
 30
0.0
  0
SEQEND
  8
0
  5
CF3
  0
POLYLINE
  8
43
  6
CONTINUOUS
  5
CF4
 66
     1
 10
0.0
 20
0.0
 30
0.0
  0
VERTEX
  8
43
  6
CONTINUOUS
  5
CF5
 10
15282.93
 20
49367.21
 30
0.0
  0
VERTEX
  8
43
  6
CONTINUOUS
  5
CF6
 10
15278.28
 20
49366.33
 30
0.0
  0
VERTEX
  8
43
  6
CONTINUOUS
  5
CF7
 10
15280.63
 20
49369.87
 30
0.0
  0
VERTEX
  8
43
  6
CONTINUOUS
  5
CF8
 10
15282.93
 20
49367.21
 30
0.0
  0
SEQEND
  8
0
  5
CF9
  0
POLYLINE
  8
43
  6
CONTINUOUS
  5
CFA
 66
     1
 10
0.0
 20
0.0
 30
0.0
  0
VERTEX
  8
43
  6
CONTINUOUS
  5
CFB
 10
15282.23
 20
49351.89
 30
0.0
  0
VERTEX
  8
43
  6
CONTINUOUS
  5
CFC
 10
15278.08
 20
49349.61
 30
0.0
  0
VERTEX
  8
43
  6
CONTINUOUS
  5
CFD
 10
15279.22
 20
49353.71
 30
0.0
  0
VERTEX
  8
43
  6
CONTINUOUS
  5
CFE
 10
15282.23
 20
49351.89
 30
0.0
  0
SEQEND
  8
0
  5
CFF
  0
POLYLINE
  8
43
  6
CONTINUOUS
  5
D00
 66
     1
 10
0.0
 20
0.0
 30
0.0
  0
VERTEX
  8
43
  6
CONTINUOUS
  5
D01
 10
15282.05
 20
49333.14
 30
0.0
  0
VERTEX
  8
43
  6
CONTINUOUS
  5
D02
 10
15277.9
 20
49330.86
 30
0.0
  0
VERTEX
  8
43
  6
CONTINUOUS
  5
D03
 10
15279.04
 20
49334.96
 30
0.0
  0
VERTEX
  8
43
  6
CONTINUOUS
  5
D04
 10
15282.05
 20
49333.14
 30
0.0
  0
SEQEND
  8
0
  5
D05
  0
POLYLINE
  8
43
  6
CONTINUOUS
  5
D06
 66
     1
 10
0.0
 20
0.0
 30
0.0
  0
VERTEX
  8
43
  6
CONTINUOUS
  5
D07
 10
15281.87
 20
49314.39
 30
0.0
  0
VERTEX
  8
43
  6
CONTINUOUS
  5
D08
 10
15277.72
 20
49312.11
 30
0.0
  0
VERTEX
  8
43
  6
CONTINUOUS
  5
D09
 10
15278.86
 20
49316.21
 30
0.0
  0
VERTEX
  8
43
  6
CONTINUOUS
  5
D0A
 10
15281.87
 20
49314.39
 30
0.0
  0
SEQEND
  8
0
  5
D0B
  0
POLYLINE
  8
43
  6
CONTINUOUS
  5
D0C
 66
     1
 10
0.0
 20
0.0
 30
0.0
  0
VERTEX
  8
43
  6
CONTINUOUS
  5
D0D
 10
15281.69
 20
49295.64
 30
0.0
  0
VERTEX
  8
43
  6
CONTINUOUS
  5
D0E
 10
15277.54
 20
49293.36
 30
0.0
  0
VERTEX
  8
43
  6
CONTINUOUS
  5
D0F
 10
15278.68
 20
49297.46
 30
0.0
  0
VERTEX
  8
43
  6
CONTINUOUS
  5
D10
 10
15281.69
 20
49295.64
 30
0.0
  0
SEQEND
  8
0
  5
D11
  0
POLYLINE
  8
43
  6
CONTINUOUS
  5
D12
 66
     1
 10
0.0
 20
0.0
 30
0.0
  0
VERTEX
  8
43
  6
CONTINUOUS
  5
D13
 10
15281.51
 20
49276.89
 30
0.0
  0
VERTEX
  8
43
  6
CONTINUOUS
  5
D14
 10
15277.36
 20
49274.61
 30
0.0
  0
VERTEX
  8
43
  6
CONTINUOUS
  5
D15
 10
15278.5
 20
49278.71
 30
0.0
  0
VERTEX
  8
43
  6
CONTINUOUS
  5
D16
 10
15281.51
 20
49276.89
 30
0.0
  0
SEQEND
  8
0
  5
D17
  0
POLYLINE
  8
43
  6
CONTINUOUS
  5
D18
 66
     1
 10
0.0
 20
0.0
 30
0.0
  0
VERTEX
  8
43
  6
CONTINUOUS
  5
D19
 10
15281.99
 20
49258.24
 30
0.0
  0
VERTEX
  8
43
  6
CONTINUOUS
  5
D1A
 10
15277.84
 20
49255.96
 30
0.0
  0
VERTEX
  8
43
  6
CONTINUOUS
  5
D1B
 10
15278.98
 20
49260.06
 30
0.0
  0
VERTEX
  8
43
  6
CONTINUOUS
  5
D1C
 10
15281.99
 20
49258.24
 30
0.0
  0
SEQEND
  8
0
  5
D1D
  0
POLYLINE
  8
43
  6
CONTINUOUS
  5
D1E
 66
     1
 10
0.0
 20
0.0
 30
0.0
  0
VERTEX
  8
43
  6
CONTINUOUS
  5
D1F
 10
15312.92
 20
49443.37
 30
0.0
  0
VERTEX
  8
43
  6
CONTINUOUS
  5
D20
 10
15315.55
 20
49439.43
 30
0.0
  0
VERTEX
  8
43
  6
CONTINUOUS
  5
D21
 10
15311.37
 20
49440.21
 30
0.0
  0
VERTEX
  8
43
  6
CONTINUOUS
  5
D22
 10
15312.92
 20
49443.37
 30
0.0
  0
SEQEND
  8
0
  5
D23
  0
POLYLINE
  8
43
  6
CONTINUOUS
  5
D24
 66
     1
 10
0.0
 20
0.0
 30
0.0
  0
VERTEX
  8
43
  6
CONTINUOUS
  5
D25
 10
15297.37
 20
49444.23
 30
0.0
  0
VERTEX
  8
43
  6
CONTINUOUS
  5
D26
 10
15298.58
 20
49439.65
 30
0.0
  0
VERTEX
  8
43
  6
CONTINUOUS
  5
D27
 10
15294.87
 20
49441.75
 30
0.0
  0
VERTEX
  8
43
  6
CONTINUOUS
  5
D28
 10
15297.37
 20
49444.23
 30
0.0
  0
SEQEND
  8
0
  5
D29
  0
POLYLINE
  8
43
  6
CONTINUOUS
  5
D2A
 66
     1
 10
0.0
 20
0.0
 30
0.0
  0
VERTEX
  8
43
  6
CONTINUOUS
  5
D2B
 10
15284.66
 20
49449.7
 30
0.0
  0
VERTEX
  8
43
  6
CONTINUOUS
  5
D2C
 10
15283.42
 20
49445.13
 30
0.0
  0
VERTEX
  8
43
  6
CONTINUOUS
  5
D2D
 10
15281.26
 20
49448.8
 30
0.0
  0
VERTEX
  8
43
  6
CONTINUOUS
  5
D2E
 10
15284.66
 20
49449.7
 30
0.0
  0
SEQEND
  8
0
  5
D2F
  0
POLYLINE
  8
43
  6
CONTINUOUS
  5
D30
 66
     1
 10
0.0
 20
0.0
 30
0.0
  0
VERTEX
  8
43
  6
CONTINUOUS
  5
D31
 10
15282.2
 20
49462.81
 30
0.0
  0
VERTEX
  8
43
  6
CONTINUOUS
  5
D32
 10
15278.36
 20
49460.04
 30
0.0
  0
VERTEX
  8
43
  6
CONTINUOUS
  5
D33
 10
15278.99
 20
49464.25
 30
0.0
  0
VERTEX
  8
43
  6
CONTINUOUS
  5
D34
 10
15282.2
 20
49462.81
 30
0.0
  0
SEQEND
  8
0
  5
D35
  0
POLYLINE
  8
43
  6
CONTINUOUS
  5
D36
 66
     1
 10
0.0
 20
0.0
 30
0.0
  0
VERTEX
  8
43
  6
CONTINUOUS
  5
D37
 10
15283.57
 20
49475.69
 30
0.0
  0
VERTEX
  8
43
  6
CONTINUOUS
  5
D38
 10
15278.91
 20
49476.53
 30
0.0
  0
VERTEX
  8
43
  6
CONTINUOUS
  5
D39
 10
15282.38
 20
49479.0
 30
0.0
  0
VERTEX
  8
43
  6
CONTINUOUS
  5
D3A
 10
15283.57
 20
49475.69
 30
0.0
  0
SEQEND
  8
0
  5
D3B
  0
POLYLINE
  8
43
  6
CONTINUOUS
  5
D3C
 66
     1
 10
0.0
 20
0.0
 30
0.0
  0
VERTEX
  8
43
  6
CONTINUOUS
  5
D3D
 10
15294.52
 20
49484.78
 30
0.0
  0
VERTEX
  8
43
  6
CONTINUOUS
  5
D3E
 10
15290.91
 20
49487.84
 30
0.0
  0
VERTEX
  8
43
  6
CONTINUOUS
  5
D3F
 10
15295.14
 20
49488.24
 30
0.0
  0
VERTEX
  8
43
  6
CONTINUOUS
  5
D40
 10
15294.52
 20
49484.78
 30
0.0
  0
SEQEND
  8
0
  5
D41
  0
POLYLINE
  8
43
  6
CONTINUOUS
  5
D42
 66
     1
 10
0.0
 20
0.0
 30
0.0
  0
VERTEX
  8
43
  6
CONTINUOUS
  5
D43
 10
15309.85
 20
49485.51
 30
0.0
  0
VERTEX
  8
43
  6
CONTINUOUS
  5
D44
 10
15307.5
 20
49489.62
 30
0.0
  0
VERTEX
  8
43
  6
CONTINUOUS
  5
D45
 10
15311.62
 20
49488.55
 30
0.0
  0
VERTEX
  8
43
  6
CONTINUOUS
  5
D46
 10
15309.85
 20
49485.51
 30
0.0
  0
SEQEND
  8
0
  5
D47
  0
POLYLINE
  8
43
  6
CONTINUOUS
  5
D48
 66
     1
 10
0.0
 20
0.0
 30
0.0
  0
VERTEX
  8
43
  6
CONTINUOUS
  5
D49
 10
15326.9
 20
49485.7
 30
0.0
  0
VERTEX
  8
43
  6
CONTINUOUS
  5
D4A
 10
15324.55
 20
49489.81
 30
0.0
  0
VERTEX
  8
43
  6
CONTINUOUS
  5
D4B
 10
15328.67
 20
49488.74
 30
0.0
  0
VERTEX
  8
43
  6
CONTINUOUS
  5
D4C
 10
15326.9
 20
49485.7
 30
0.0
  0
SEQEND
  8
0
  5
D4D
  0
POLYLINE
  8
43
  6
CONTINUOUS
  5
D4E
 66
     1
 10
0.0
 20
0.0
 30
0.0
  0
VERTEX
  8
43
  6
CONTINUOUS
  5
D4F
 10
15227.99
 20
49502.8
 30
0.0
  0
VERTEX
  8
43
  6
CONTINUOUS
  5
D50
 10
15232.14
 20
49505.08
 30
0.0
  0
VERTEX
  8
43
  6
CONTINUOUS
  5
D51
 10
15231.0
 20
49500.98
 30
0.0
  0
VERTEX
  8
43
  6
CONTINUOUS
  5
D52
 10
15227.99
 20
49502.8
 30
0.0
  0
SEQEND
  8
0
  5
D53
  0
POLYLINE
  8
43
  6
CONTINUOUS
  5
D54
 66
     1
 10
0.0
 20
0.0
 30
0.0
  0
VERTEX
  8
43
  6
CONTINUOUS
  5
D55
 10
15227.83
 20
49486.1
 30
0.0
  0
VERTEX
  8
43
  6
CONTINUOUS
  5
D56
 10
15231.98
 20
49488.38
 30
0.0
  0
VERTEX
  8
43
  6
CONTINUOUS
  5
D57
 10
15230.84
 20
49484.28
 30
0.0
  0
VERTEX
  8
43
  6
CONTINUOUS
  5
D58
 10
15227.83
 20
49486.1
 30
0.0
  0
SEQEND
  8
0
  5
D59
  0
POLYLINE
  8
43
  6
CONTINUOUS
  5
D5A
 66
     1
 10
0.0
 20
0.0
 30
0.0
  0
VERTEX
  8
43
  6
CONTINUOUS
  5
D5B
 10
15227.67
 20
49469.4
 30
0.0
  0
VERTEX
  8
43
  6
CONTINUOUS
  5
D5C
 10
15231.82
 20
49471.68
 30
0.0
  0
VERTEX
  8
43
  6
CONTINUOUS
  5
D5D
 10
15230.68
 20
49467.58
 30
0.0
  0
VERTEX
  8
43
  6
CONTINUOUS
  5
D5E
 10
15227.67
 20
49469.4
 30
0.0
  0
SEQEND
  8
0
  5
D5F
  0
POLYLINE
  8
43
  6
CONTINUOUS
  5
D60
 66
     1
 10
0.0
 20
0.0
 30
0.0
  0
VERTEX
  8
43
  6
CONTINUOUS
  5
D61
 10
15227.51
 20
49452.71
 30
0.0
  0
VERTEX
  8
43
  6
CONTINUOUS
  5
D62
 10
15231.66
 20
49454.99
 30
0.0
  0
VERTEX
  8
43
  6
CONTINUOUS
  5
D63
 10
15230.52
 20
49450.89
 30
0.0
  0
VERTEX
  8
43
  6
CONTINUOUS
  5
D64
 10
15227.51
 20
49452.71
 30
0.0
  0
SEQEND
  8
0
  5
D65
  0
POLYLINE
  8
43
  6
CONTINUOUS
  5
D66
 66
     1
 10
0.0
 20
0.0
 30
0.0
  0
VERTEX
  8
43
  6
CONTINUOUS
  5
D67
 10
15227.34
 20
49435.0
 30
0.0
  0
VERTEX
  8
43
  6
CONTINUOUS
  5
D68
 10
15231.49
 20
49437.28
 30
0.0
  0
VERTEX
  8
43
  6
CONTINUOUS
  5
D69
 10
15230.35
 20
49433.18
 30
0.0
  0
VERTEX
  8
43
  6
CONTINUOUS
  5
D6A
 10
15227.34
 20
49435.0
 30
0.0
  0
SEQEND
  8
0
  5
D6B
  0
POLYLINE
  8
43
  6
CONTINUOUS
  5
D6C
 66
     1
 10
0.0
 20
0.0
 30
0.0
  0
VERTEX
  8
43
  6
CONTINUOUS
  5
D6D
 10
15227.01
 20
49400.62
 30
0.0
  0
VERTEX
  8
43
  6
CONTINUOUS
  5
D6E
 10
15231.16
 20
49402.9
 30
0.0
  0
VERTEX
  8
43
  6
CONTINUOUS
  5
D6F
 10
15230.02
 20
49398.8
 30
0.0
  0
VERTEX
  8
43
  6
CONTINUOUS
  5
D70
 10
15227.01
 20
49400.62
 30
0.0
  0
SEQEND
  8
0
  5
D71
  0
POLYLINE
  8
43
  6
CONTINUOUS
  5
D72
 66
     1
 10
0.0
 20
0.0
 30
0.0
  0
VERTEX
  8
43
  6
CONTINUOUS
  5
D73
 10
15226.85
 20
49384.54
 30
0.0
  0
VERTEX
  8
43
  6
CONTINUOUS
  5
D74
 10
15231.0
 20
49386.82
 30
0.0
  0
VERTEX
  8
43
  6
CONTINUOUS
  5
D75
 10
15229.86
 20
49382.72
 30
0.0
  0
VERTEX
  8
43
  6
CONTINUOUS
  5
D76
 10
15226.85
 20
49384.54
 30
0.0
  0
SEQEND
  8
0
  5
D77
  0
POLYLINE
  8
43
  6
CONTINUOUS
  5
D78
 66
     1
 10
0.0
 20
0.0
 30
0.0
  0
VERTEX
  8
43
  6
CONTINUOUS
  5
D79
 10
15226.7
 20
49368.47
 30
0.0
  0
VERTEX
  8
43
  6
CONTINUOUS
  5
D7A
 10
15230.85
 20
49370.75
 30
0.0
  0
VERTEX
  8
43
  6
CONTINUOUS
  5
D7B
 10
15229.71
 20
49366.65
 30
0.0
  0
VERTEX
  8
43
  6
CONTINUOUS
  5
D7C
 10
15226.7
 20
49368.47
 30
0.0
  0
SEQEND
  8
0
  5
D7D
  0
POLYLINE
  8
43
  6
CONTINUOUS
  5
D7E
 66
     1
 10
0.0
 20
0.0
 30
0.0
  0
VERTEX
  8
43
  6
CONTINUOUS
  5
D7F
 10
15226.55
 20
49352.4
 30
0.0
  0
VERTEX
  8
43
  6
CONTINUOUS
  5
D80
 10
15230.7
 20
49354.68
 30
0.0
  0
VERTEX
  8
43
  6
CONTINUOUS
  5
D81
 10
15229.56
 20
49350.58
 30
0.0
  0
VERTEX
  8
43
  6
CONTINUOUS
  5
D82
 10
15226.55
 20
49352.4
 30
0.0
  0
SEQEND
  8
0
  5
D83
  0
POLYLINE
  8
43
  6
CONTINUOUS
  5
D84
 66
     1
 10
0.0
 20
0.0
 30
0.0
  0
VERTEX
  8
43
  6
CONTINUOUS
  5
D85
 10
15226.39
 20
49336.33
 30
0.0
  0
VERTEX
  8
43
  6
CONTINUOUS
  5
D86
 10
15230.54
 20
49338.61
 30
0.0
  0
VERTEX
  8
43
  6
CONTINUOUS
  5
D87
 10
15229.4
 20
49334.51
 30
0.0
  0
VERTEX
  8
43
  6
CONTINUOUS
  5
D88
 10
15226.39
 20
49336.33
 30
0.0
  0
SEQEND
  8
0
  5
D89
  0
POLYLINE
  8
43
  6
CONTINUOUS
  5
D8A
 66
     1
 10
0.0
 20
0.0
 30
0.0
  0
VERTEX
  8
43
  6
CONTINUOUS
  5
D8B
 10
15226.24
 20
49320.26
 30
0.0
  0
VERTEX
  8
43
  6
CONTINUOUS
  5
D8C
 10
15230.39
 20
49322.54
 30
0.0
  0
VERTEX
  8
43
  6
CONTINUOUS
  5
D8D
 10
15229.25
 20
49318.44
 30
0.0
  0
VERTEX
  8
43
  6
CONTINUOUS
  5
D8E
 10
15226.24
 20
49320.26
 30
0.0
  0
SEQEND
  8
0
  5
D8F
  0
POLYLINE
  8
43
  6
CONTINUOUS
  5
D90
 66
     1
 10
0.0
 20
0.0
 30
0.0
  0
VERTEX
  8
43
  6
CONTINUOUS
  5
D91
 10
15226.09
 20
49304.19
 30
0.0
  0
VERTEX
  8
43
  6
CONTINUOUS
  5
D92
 10
15230.24
 20
49306.47
 30
0.0
  0
VERTEX
  8
43
  6
CONTINUOUS
  5
D93
 10
15229.1
 20
49302.37
 30
0.0
  0
VERTEX
  8
43
  6
CONTINUOUS
  5
D94
 10
15226.09
 20
49304.19
 30
0.0
  0
SEQEND
  8
0
  5
D95
  0
POLYLINE
  8
43
  6
CONTINUOUS
  5
D96
 66
     1
 10
0.0
 20
0.0
 30
0.0
  0
VERTEX
  8
43
  6
CONTINUOUS
  5
D97
 10
15225.93
 20
49288.12
 30
0.0
  0
VERTEX
  8
43
  6
CONTINUOUS
  5
D98
 10
15230.08
 20
49290.4
 30
0.0
  0
VERTEX
  8
43
  6
CONTINUOUS
  5
D99
 10
15228.94
 20
49286.3
 30
0.0
  0
VERTEX
  8
43
  6
CONTINUOUS
  5
D9A
 10
15225.93
 20
49288.12
 30
0.0
  0
SEQEND
  8
0
  5
D9B
  0
POLYLINE
  8
43
  6
CONTINUOUS
  5
D9C
 66
     1
 10
0.0
 20
0.0
 30
0.0
  0
VERTEX
  8
43
  6
CONTINUOUS
  5
D9D
 10
15225.78
 20
49272.05
 30
0.0
  0
VERTEX
  8
43
  6
CONTINUOUS
  5
D9E
 10
15229.93
 20
49274.33
 30
0.0
  0
VERTEX
  8
43
  6
CONTINUOUS
  5
D9F
 10
15228.79
 20
49270.23
 30
0.0
  0
VERTEX
  8
43
  6
CONTINUOUS
  5
DA0
 10
15225.78
 20
49272.05
 30
0.0
  0
SEQEND
  8
0
  5
DA1
  0
POLYLINE
  8
43
  6
CONTINUOUS
  5
DA2
 66
     1
 10
0.0
 20
0.0
 30
0.0
  0
VERTEX
  8
43
  6
CONTINUOUS
  5
DA3
 10
15225.5
 20
49255.87
 30
0.0
  0
VERTEX
  8
43
  6
CONTINUOUS
  5
DA4
 10
15229.65
 20
49258.15
 30
0.0
  0
VERTEX
  8
43
  6
CONTINUOUS
  5
DA5
 10
15228.51
 20
49254.05
 30
0.0
  0
VERTEX
  8
43
  6
CONTINUOUS
  5
DA6
 10
15225.5
 20
49255.87
 30
0.0
  0
SEQEND
  8
0
  5
DA7
  0
POLYLINE
  8
43
  6
CONTINUOUS
  5
DA8
 66
     1
 10
0.0
 20
0.0
 30
0.0
  0
VERTEX
  8
43
  6
CONTINUOUS
  5
DA9
 10
15314.72
 20
49540.27
 30
0.0
  0
VERTEX
  8
43
  6
CONTINUOUS
  5
DAA
 10
15317.07
 20
49536.16
 30
0.0
  0
VERTEX
  8
43
  6
CONTINUOUS
  5
DAB
 10
15312.95
 20
49537.23
 30
0.0
  0
VERTEX
  8
43
  6
CONTINUOUS
  5
DAC
 10
15314.72
 20
49540.27
 30
0.0
  0
SEQEND
  8
0
  5
DAD
  0
POLYLINE
  8
43
  6
CONTINUOUS
  5
DAE
 66
     1
 10
0.0
 20
0.0
 30
0.0
  0
VERTEX
  8
43
  6
CONTINUOUS
  5
DAF
 10
15298.29
 20
49540.09
 30
0.0
  0
VERTEX
  8
43
  6
CONTINUOUS
  5
DB0
 10
15300.64
 20
49535.98
 30
0.0
  0
VERTEX
  8
43
  6
CONTINUOUS
  5
DB1
 10
15296.52
 20
49537.05
 30
0.0
  0
VERTEX
  8
43
  6
CONTINUOUS
  5
DB2
 10
15298.29
 20
49540.09
 30
0.0
  0
SEQEND
  8
0
  5
DB3
  0
POLYLINE
  8
43
  6
CONTINUOUS
  5
DB4
 66
     1
 10
0.0
 20
0.0
 30
0.0
  0
VERTEX
  8
43
  6
CONTINUOUS
  5
DB5
 10
15281.87
 20
49539.91
 30
0.0
  0
VERTEX
  8
43
  6
CONTINUOUS
  5
DB6
 10
15284.22
 20
49535.8
 30
0.0
  0
VERTEX
  8
43
  6
CONTINUOUS
  5
DB7
 10
15280.1
 20
49536.87
 30
0.0
  0
VERTEX
  8
43
  6
CONTINUOUS
  5
DB8
 10
15281.87
 20
49539.91
 30
0.0
  0
SEQEND
  8
0
  5
DB9
  0
POLYLINE
  8
43
  6
CONTINUOUS
  5
DBA
 66
     1
 10
0.0
 20
0.0
 30
0.0
  0
VERTEX
  8
43
  6
CONTINUOUS
  5
DBB
 10
15265.44
 20
49539.74
 30
0.0
  0
VERTEX
  8
43
  6
CONTINUOUS
  5
DBC
 10
15267.79
 20
49535.63
 30
0.0
  0
VERTEX
  8
43
  6
CONTINUOUS
  5
DBD
 10
15263.67
 20
49536.7
 30
0.0
  0
VERTEX
  8
43
  6
CONTINUOUS
  5
DBE
 10
15265.44
 20
49539.74
 30
0.0
  0
SEQEND
  8
0
  5
DBF
  0
POLYLINE
  8
43
  6
CONTINUOUS
  5
DC0
 66
     1
 10
0.0
 20
0.0
 30
0.0
  0
VERTEX
  8
43
  6
CONTINUOUS
  5
DC1
 10
15249.01
 20
49539.56
 30
0.0
  0
VERTEX
  8
43
  6
CONTINUOUS
  5
DC2
 10
15251.36
 20
49535.45
 30
0.0
  0
VERTEX
  8
43
  6
CONTINUOUS
  5
DC3
 10
15247.24
 20
49536.52
 30
0.0
  0
VERTEX
  8
43
  6
CONTINUOUS
  5
DC4
 10
15249.01
 20
49539.56
 30
0.0
  0
SEQEND
  8
0
  5
DC5
  0
POLYLINE
  8
43
  6
CONTINUOUS
  5
DC6
 66
     1
 10
0.0
 20
0.0
 30
0.0
  0
VERTEX
  8
43
  6
CONTINUOUS
  5
DC7
 10
15231.59
 20
49539.92
 30
0.0
  0
VERTEX
  8
43
  6
CONTINUOUS
  5
DC8
 10
15233.94
 20
49535.81
 30
0.0
  0
VERTEX
  8
43
  6
CONTINUOUS
  5
DC9
 10
15229.82
 20
49536.88
 30
0.0
  0
VERTEX
  8
43
  6
CONTINUOUS
  5
DCA
 10
15231.59
 20
49539.92
 30
0.0
  0
SEQEND
  8
0
  5
DCB
  0
POLYLINE
  8
43
  6
CONTINUOUS
  5
DCC
 66
     1
 10
0.0
 20
0.0
 30
0.0
  0
VERTEX
  8
43
  6
CONTINUOUS
  5
DCD
 10
15323.59
 20
49574.49
 30
0.0
  0
VERTEX
  8
43
  6
CONTINUOUS
  5
DCE
 10
15321.24
 20
49578.6
 30
0.0
  0
VERTEX
  8
43
  6
CONTINUOUS
  5
DCF
 10
15325.36
 20
49577.53
 30
0.0
  0
VERTEX
  8
43
  6
CONTINUOUS
  5
DD0
 10
15323.59
 20
49574.49
 30
0.0
  0
SEQEND
  8
0
  5
DD1
  0
POLYLINE
  8
43
  6
CONTINUOUS
  5
DD2
 66
     1
 10
0.0
 20
0.0
 30
0.0
  0
VERTEX
  8
43
  6
CONTINUOUS
  5
DD3
 10
15308.35
 20
49574.32
 30
0.0
  0
VERTEX
  8
43
  6
CONTINUOUS
  5
DD4
 10
15306.0
 20
49578.43
 30
0.0
  0
VERTEX
  8
43
  6
CONTINUOUS
  5
DD5
 10
15310.12
 20
49577.36
 30
0.0
  0
VERTEX
  8
43
  6
CONTINUOUS
  5
DD6
 10
15308.35
 20
49574.32
 30
0.0
  0
SEQEND
  8
0
  5
DD7
  0
POLYLINE
  8
43
  6
CONTINUOUS
  5
DD8
 66
     1
 10
0.0
 20
0.0
 30
0.0
  0
VERTEX
  8
43
  6
CONTINUOUS
  5
DD9
 10
15293.11
 20
49574.15
 30
0.0
  0
VERTEX
  8
43
  6
CONTINUOUS
  5
DDA
 10
15290.76
 20
49578.26
 30
0.0
  0
VERTEX
  8
43
  6
CONTINUOUS
  5
DDB
 10
15294.88
 20
49577.19
 30
0.0
  0
VERTEX
  8
43
  6
CONTINUOUS
  5
DDC
 10
15293.11
 20
49574.15
 30
0.0
  0
SEQEND
  8
0
  5
DDD
  0
POLYLINE
  8
43
  6
CONTINUOUS
  5
DDE
 66
     1
 10
0.0
 20
0.0
 30
0.0
  0
VERTEX
  8
43
  6
CONTINUOUS
  5
DDF
 10
15277.88
 20
49573.99
 30
0.0
  0
VERTEX
  8
43
  6
CONTINUOUS
  5
DE0
 10
15275.53
 20
49578.1
 30
0.0
  0
VERTEX
  8
43
  6
CONTINUOUS
  5
DE1
 10
15279.65
 20
49577.03
 30
0.0
  0
VERTEX
  8
43
  6
CONTINUOUS
  5
DE2
 10
15277.88
 20
49573.99
 30
0.0
  0
SEQEND
  8
0
  5
DE3
  0
POLYLINE
  8
43
  6
CONTINUOUS
  5
DE4
 66
     1
 10
0.0
 20
0.0
 30
0.0
  0
VERTEX
  8
43
  6
CONTINUOUS
  5
DE5
 10
15262.64
 20
49573.82
 30
0.0
  0
VERTEX
  8
43
  6
CONTINUOUS
  5
DE6
 10
15260.29
 20
49577.93
 30
0.0
  0
VERTEX
  8
43
  6
CONTINUOUS
  5
DE7
 10
15264.41
 20
49576.86
 30
0.0
  0
VERTEX
  8
43
  6
CONTINUOUS
  5
DE8
 10
15262.64
 20
49573.82
 30
0.0
  0
SEQEND
  8
0
  5
DE9
  0
POLYLINE
  8
43
  6
CONTINUOUS
  5
DEA
 66
     1
 10
0.0
 20
0.0
 30
0.0
  0
VERTEX
  8
43
  6
CONTINUOUS
  5
DEB
 10
15247.4
 20
49573.66
 30
0.0
  0
VERTEX
  8
43
  6
CONTINUOUS
  5
DEC
 10
15245.05
 20
49577.77
 30
0.0
  0
VERTEX
  8
43
  6
CONTINUOUS
  5
DED
 10
15249.17
 20
49576.7
 30
0.0
  0
VERTEX
  8
43
  6
CONTINUOUS
  5
DEE
 10
15247.4
 20
49573.66
 30
0.0
  0
SEQEND
  8
0
  5
DEF
  0
POLYLINE
  8
43
  6
CONTINUOUS
  5
DF0
 66
     1
 10
0.0
 20
0.0
 30
0.0
  0
VERTEX
  8
43
  6
CONTINUOUS
  5
DF1
 10
15231.16
 20
49573.48
 30
0.0
  0
VERTEX
  8
43
  6
CONTINUOUS
  5
DF2
 10
15228.81
 20
49577.59
 30
0.0
  0
VERTEX
  8
43
  6
CONTINUOUS
  5
DF3
 10
15232.93
 20
49576.52
 30
0.0
  0
VERTEX
  8
43
  6
CONTINUOUS
  5
DF4
 10
15231.16
 20
49573.48
 30
0.0
  0
SEQEND
  8
0
  5
DF5
  0
POLYLINE
  8
43
  6
CONTINUOUS
  5
DF6
 66
     1
 10
0.0
 20
0.0
 30
0.0
  0
VERTEX
  8
43
  6
CONTINUOUS
  5
DF7
 10
15028.37
 20
49223.34
 30
0.0
  0
VERTEX
  8
43
  6
CONTINUOUS
  5
DF8
 10
15032.78
 20
49221.62
 30
0.0
  0
VERTEX
  8
43
  6
CONTINUOUS
  5
DF9
 10
15028.91
 20
49219.86
 30
0.0
  0
VERTEX
  8
43
  6
CONTINUOUS
  5
DFA
 10
15028.37
 20
49223.34
 30
0.0
  0
SEQEND
  8
0
  5
DFB
  0
POLYLINE
  8
43
  6
CONTINUOUS
  5
DFC
 66
     1
 10
0.0
 20
0.0
 30
0.0
  0
VERTEX
  8
43
  6
CONTINUOUS
  5
DFD
 10
15040.14
 20
49232.16
 30
0.0
  0
VERTEX
  8
43
  6
CONTINUOUS
  5
DFE
 10
15044.86
 20
49231.81
 30
0.0
  0
VERTEX
  8
43
  6
CONTINUOUS
  5
DFF
 10
15041.67
 20
49228.99
 30
0.0
  0
VERTEX
  8
43
  6
CONTINUOUS
  5
E00
 10
15040.14
 20
49232.16
 30
0.0
  0
SEQEND
  8
0
  5
E01
  0
POLYLINE
  8
43
  6
CONTINUOUS
  5
E02
 66
     1
 10
0.0
 20
0.0
 30
0.0
  0
VERTEX
  8
43
  6
CONTINUOUS
  5
E03
 10
15041.52
 20
49243.4
 30
0.0
  0
VERTEX
  8
43
  6
CONTINUOUS
  5
E04
 10
15045.16
 20
49246.43
 30
0.0
  0
VERTEX
  8
43
  6
CONTINUOUS
  5
E05
 10
15044.82
 20
49242.18
 30
0.0
  0
VERTEX
  8
43
  6
CONTINUOUS
  5
E06
 10
15041.52
 20
49243.4
 30
0.0
  0
SEQEND
  8
0
  5
E07
  0
POLYLINE
  8
43
  6
CONTINUOUS
  5
E08
 66
     1
 10
0.0
 20
0.0
 30
0.0
  0
VERTEX
  8
43
  6
CONTINUOUS
  5
E09
 10
15036.77
 20
49253.34
 30
0.0
  0
VERTEX
  8
43
  6
CONTINUOUS
  5
E0A
 10
15038.25
 20
49257.84
 30
0.0
  0
VERTEX
  8
43
  6
CONTINUOUS
  5
E0B
 10
15040.21
 20
49254.06
 30
0.0
  0
VERTEX
  8
43
  6
CONTINUOUS
  5
E0C
 10
15036.77
 20
49253.34
 30
0.0
  0
SEQEND
  8
0
  5
E0D
  0
POLYLINE
  8
43
  6
CONTINUOUS
  5
E0E
 66
     1
 10
0.0
 20
0.0
 30
0.0
  0
VERTEX
  8
43
  6
CONTINUOUS
  5
E0F
 10
15025.06
 20
49256.78
 30
0.0
  0
VERTEX
  8
43
  6
CONTINUOUS
  5
E10
 10
15023.93
 20
49261.38
 30
0.0
  0
VERTEX
  8
43
  6
CONTINUOUS
  5
E11
 10
15027.6
 20
49259.21
 30
0.0
  0
VERTEX
  8
43
  6
CONTINUOUS
  5
E12
 10
15025.06
 20
49256.78
 30
0.0
  0
SEQEND
  8
0
  5
E13
  0
POLYLINE
  8
43
  6
CONTINUOUS
  5
E14
 66
     1
 10
0.0
 20
0.0
 30
0.0
  0
VERTEX
  8
43
  6
CONTINUOUS
  5
E15
 10
14941.76
 20
49272.58
 30
0.0
  0
VERTEX
  8
43
  6
CONTINUOUS
  5
E16
 10
14944.69
 20
49276.3
 30
0.0
  0
VERTEX
  8
43
  6
CONTINUOUS
  5
E17
 10
14945.24
 20
49272.08
 30
0.0
  0
VERTEX
  8
43
  6
CONTINUOUS
  5
E18
 10
14941.76
 20
49272.58
 30
0.0
  0
SEQEND
  8
0
  5
E19
  0
POLYLINE
  8
43
  6
CONTINUOUS
  5
E1A
 66
     1
 10
0.0
 20
0.0
 30
0.0
  0
VERTEX
  8
43
  6
CONTINUOUS
  5
E1B
 10
14965.71
 20
49262.55
 30
0.0
  0
VERTEX
  8
43
  6
CONTINUOUS
  5
E1C
 10
14966.87
 20
49267.14
 30
0.0
  0
VERTEX
  8
43
  6
CONTINUOUS
  5
E1D
 10
14969.09
 20
49263.51
 30
0.0
  0
VERTEX
  8
43
  6
CONTINUOUS
  5
E1E
 10
14965.71
 20
49262.55
 30
0.0
  0
SEQEND
  8
0
  5
E1F
  0
POLYLINE
  8
43
  6
CONTINUOUS
  5
E20
 66
     1
 10
0.0
 20
0.0
 30
0.0
  0
VERTEX
  8
43
  6
CONTINUOUS
  5
E21
 10
14987.43
 20
49255.96
 30
0.0
  0
VERTEX
  8
43
  6
CONTINUOUS
  5
E22
 10
14987.28
 20
49260.69
 30
0.0
  0
VERTEX
  8
43
  6
CONTINUOUS
  5
E23
 10
14990.42
 20
49257.81
 30
0.0
  0
VERTEX
  8
43
  6
CONTINUOUS
  5
E24
 10
14987.43
 20
49255.96
 30
0.0
  0
SEQEND
  8
0
  5
E25
  0
POLYLINE
  8
43
  6
CONTINUOUS
  5
E26
 66
     1
 10
0.0
 20
0.0
 30
0.0
  0
VERTEX
  8
43
  6
CONTINUOUS
  5
E27
 10
15035.98
 20
49191.5
 30
0.0
  0
VERTEX
  8
43
  6
CONTINUOUS
  5
E28
 10
15039.82
 20
49194.27
 30
0.0
  0
VERTEX
  8
43
  6
CONTINUOUS
  5
E29
 10
15039.19
 20
49190.06
 30
0.0
  0
VERTEX
  8
43
  6
CONTINUOUS
  5
E2A
 10
15035.98
 20
49191.5
 30
0.0
  0
SEQEND
  8
0
  5
E2B
  0
POLYLINE
  8
43
  6
CONTINUOUS
  5
E2C
 66
     1
 10
0.0
 20
0.0
 30
0.0
  0
VERTEX
  8
43
  6
CONTINUOUS
  5
E2D
 10
15035.59
 20
49173.16
 30
0.0
  0
VERTEX
  8
43
  6
CONTINUOUS
  5
E2E
 10
15039.74
 20
49175.44
 30
0.0
  0
VERTEX
  8
43
  6
CONTINUOUS
  5
E2F
 10
15038.6
 20
49171.34
 30
0.0
  0
VERTEX
  8
43
  6
CONTINUOUS
  5
E30
 10
15035.59
 20
49173.16
 30
0.0
  0
SEQEND
  8
0
  5
E31
  0
POLYLINE
  8
43
  6
CONTINUOUS
  5
E32
 66
     1
 10
0.0
 20
0.0
 30
0.0
  0
VERTEX
  8
43
  6
CONTINUOUS
  5
E33
 10
15035.44
 20
49155.16
 30
0.0
  0
VERTEX
  8
43
  6
CONTINUOUS
  5
E34
 10
15039.59
 20
49157.44
 30
0.0
  0
VERTEX
  8
43
  6
CONTINUOUS
  5
E35
 10
15038.45
 20
49153.34
 30
0.0
  0
VERTEX
  8
43
  6
CONTINUOUS
  5
E36
 10
15035.44
 20
49155.16
 30
0.0
  0
SEQEND
  8
0
  5
E37
  0
POLYLINE
  8
43
  6
CONTINUOUS
  5
E38
 66
     1
 10
0.0
 20
0.0
 30
0.0
  0
VERTEX
  8
43
  6
CONTINUOUS
  5
E39
 10
14940.58
 20
49242.7
 30
0.0
  0
VERTEX
  8
43
  6
CONTINUOUS
  5
E3A
 10
14936.99
 20
49239.61
 30
0.0
  0
VERTEX
  8
43
  6
CONTINUOUS
  5
E3B
 10
14937.26
 20
49243.86
 30
0.0
  0
VERTEX
  8
43
  6
CONTINUOUS
  5
E3C
 10
14940.58
 20
49242.7
 30
0.0
  0
SEQEND
  8
0
  5
E3D
  0
POLYLINE
  8
43
  6
CONTINUOUS
  5
E3E
 66
     1
 10
0.0
 20
0.0
 30
0.0
  0
VERTEX
  8
43
  6
CONTINUOUS
  5
E3F
 10
14938.99
 20
49225.13
 30
0.0
  0
VERTEX
  8
43
  6
CONTINUOUS
  5
E40
 10
14936.26
 20
49221.26
 30
0.0
  0
VERTEX
  8
43
  6
CONTINUOUS
  5
E41
 10
14935.49
 20
49225.45
 30
0.0
  0
VERTEX
  8
43
  6
CONTINUOUS
  5
E42
 10
14938.99
 20
49225.13
 30
0.0
  0
SEQEND
  8
0
  5
E43
  0
POLYLINE
  8
43
  6
CONTINUOUS
  5
E44
 66
     1
 10
0.0
 20
0.0
 30
0.0
  0
VERTEX
  8
43
  6
CONTINUOUS
  5
E45
 10
14944.81
 20
49215.64
 30
0.0
  0
VERTEX
  8
43
  6
CONTINUOUS
  5
E46
 10
14944.3
 20
49210.93
 30
0.0
  0
VERTEX
  8
43
  6
CONTINUOUS
  5
E47
 10
14941.59
 20
49214.22
 30
0.0
  0
VERTEX
  8
43
  6
CONTINUOUS
  5
E48
 10
14944.81
 20
49215.64
 30
0.0
  0
SEQEND
  8
0
  5
E49
  0
POLYLINE
  8
43
  6
CONTINUOUS
  5
E4A
 66
     1
 10
0.0
 20
0.0
 30
0.0
  0
VERTEX
  8
43
  6
CONTINUOUS
  5
E4B
 10
14956.99
 20
49214.49
 30
0.0
  0
VERTEX
  8
43
  6
CONTINUOUS
  5
E4C
 10
14959.34
 20
49210.38
 30
0.0
  0
VERTEX
  8
43
  6
CONTINUOUS
  5
E4D
 10
14955.22
 20
49211.45
 30
0.0
  0
VERTEX
  8
43
  6
CONTINUOUS
  5
E4E
 10
14956.99
 20
49214.49
 30
0.0
  0
SEQEND
  8
0
  5
E4F
  0
POLYLINE
  8
43
  6
CONTINUOUS
  5
E50
 66
     1
 10
0.0
 20
0.0
 30
0.0
  0
VERTEX
  8
43
  6
CONTINUOUS
  5
E51
 10
14985.42
 20
49224.91
 30
0.0
  0
VERTEX
  8
43
  6
CONTINUOUS
  5
E52
 10
14983.94
 20
49220.41
 30
0.0
  0
VERTEX
  8
43
  6
CONTINUOUS
  5
E53
 10
14981.98
 20
49224.19
 30
0.0
  0
VERTEX
  8
43
  6
CONTINUOUS
  5
E54
 10
14985.42
 20
49224.91
 30
0.0
  0
SEQEND
  8
0
  5
E55
  0
POLYLINE
  8
43
  6
CONTINUOUS
  5
E56
 66
     1
 10
0.0
 20
0.0
 30
0.0
  0
VERTEX
  8
43
  6
CONTINUOUS
  5
E57
 10
15001.96
 20
49203.13
 30
0.0
  0
VERTEX
  8
43
  6
CONTINUOUS
  5
E58
 10
14998.72
 20
49199.68
 30
0.0
  0
VERTEX
  8
43
  6
CONTINUOUS
  5
E59
 10
14998.54
 20
49203.93
 30
0.0
  0
VERTEX
  8
43
  6
CONTINUOUS
  5
E5A
 10
15001.96
 20
49203.13
 30
0.0
  0
SEQEND
  8
0
  5
E5B
  0
POLYLINE
  8
43
  6
CONTINUOUS
  5
E5C
 66
     1
 10
0.0
 20
0.0
 30
0.0
  0
VERTEX
  8
43
  6
CONTINUOUS
  5
E5D
 10
15003.59
 20
49173.2
 30
0.0
  0
VERTEX
  8
43
  6
CONTINUOUS
  5
E5E
 10
14999.44
 20
49170.92
 30
0.0
  0
VERTEX
  8
43
  6
CONTINUOUS
  5
E5F
 10
15000.58
 20
49175.02
 30
0.0
  0
VERTEX
  8
43
  6
CONTINUOUS
  5
E60
 10
15003.59
 20
49173.2
 30
0.0
  0
SEQEND
  8
0
  5
E61
  0
POLYLINE
  8
43
  6
CONTINUOUS
  5
E62
 66
     1
 10
0.0
 20
0.0
 30
0.0
  0
VERTEX
  8
43
  6
CONTINUOUS
  5
E63
 10
15003.44
 20
49155.4
 30
0.0
  0
VERTEX
  8
43
  6
CONTINUOUS
  5
E64
 10
14999.29
 20
49153.12
 30
0.0
  0
VERTEX
  8
43
  6
CONTINUOUS
  5
E65
 10
15000.43
 20
49157.22
 30
0.0
  0
VERTEX
  8
43
  6
CONTINUOUS
  5
E66
 10
15003.44
 20
49155.4
 30
0.0
  0
SEQEND
  8
0
  5
E67
  0
POLYLINE
  8
43
  6
CONTINUOUS
  5
E68
 66
     1
 10
0.0
 20
0.0
 30
0.0
  0
VERTEX
  8
43
  6
CONTINUOUS
  5
E69
 10
14964.83
 20
49150.53
 30
0.0
  0
VERTEX
  8
43
  6
CONTINUOUS
  5
E6A
 10
14962.48
 20
49154.64
 30
0.0
  0
VERTEX
  8
43
  6
CONTINUOUS
  5
E6B
 10
14966.6
 20
49153.57
 30
0.0
  0
VERTEX
  8
43
  6
CONTINUOUS
  5
E6C
 10
14964.83
 20
49150.53
 30
0.0
  0
SEQEND
  8
0
  5
E6D
  0
POLYLINE
  8
43
  6
CONTINUOUS
  5
E6E
 66
     1
 10
0.0
 20
0.0
 30
0.0
  0
VERTEX
  8
43
  6
CONTINUOUS
  5
E6F
 10
14947.04
 20
49151.1
 30
0.0
  0
VERTEX
  8
43
  6
CONTINUOUS
  5
E70
 10
14944.69
 20
49155.21
 30
0.0
  0
VERTEX
  8
43
  6
CONTINUOUS
  5
E71
 10
14948.81
 20
49154.14
 30
0.0
  0
VERTEX
  8
43
  6
CONTINUOUS
  5
E72
 10
14947.04
 20
49151.1
 30
0.0
  0
SEQEND
  8
0
  5
E73
  0
POLYLINE
  8
43
  6
CONTINUOUS
  5
E74
 66
     1
 10
0.0
 20
0.0
 30
0.0
  0
VERTEX
  8
43
  6
CONTINUOUS
  5
E75
 10
14825.56
 20
49193.63
 30
0.0
  0
VERTEX
  8
43
  6
CONTINUOUS
  5
E76
 10
14829.71
 20
49195.91
 30
0.0
  0
VERTEX
  8
43
  6
CONTINUOUS
  5
E77
 10
14828.57
 20
49191.81
 30
0.0
  0
VERTEX
  8
43
  6
CONTINUOUS
  5
E78
 10
14825.56
 20
49193.63
 30
0.0
  0
SEQEND
  8
0
  5
E79
  0
POLYLINE
  8
43
  6
CONTINUOUS
  5
E7A
 66
     1
 10
0.0
 20
0.0
 30
0.0
  0
VERTEX
  8
43
  6
CONTINUOUS
  5
E7B
 10
14935.66
 20
49314.21
 30
0.0
  0
VERTEX
  8
43
  6
CONTINUOUS
  5
E7C
 10
14937.94
 20
49310.06
 30
0.0
  0
VERTEX
  8
43
  6
CONTINUOUS
  5
E7D
 10
14933.84
 20
49311.2
 30
0.0
  0
VERTEX
  8
43
  6
CONTINUOUS
  5
E7E
 10
14935.66
 20
49314.21
 30
0.0
  0
SEQEND
  8
0
  5
E7F
  0
POLYLINE
  8
43
  6
CONTINUOUS
  5
E80
 66
     1
 10
0.0
 20
0.0
 30
0.0
  0
VERTEX
  8
43
  6
CONTINUOUS
  5
E81
 10
14957.87
 20
49313.33
 30
0.0
  0
VERTEX
  8
43
  6
CONTINUOUS
  5
E82
 10
14960.15
 20
49309.18
 30
0.0
  0
VERTEX
  8
43
  6
CONTINUOUS
  5
E83
 10
14956.05
 20
49310.32
 30
0.0
  0
VERTEX
  8
43
  6
CONTINUOUS
  5
E84
 10
14957.87
 20
49313.33
 30
0.0
  0
SEQEND
  8
0
  5
E85
  0
POLYLINE
  8
43
  6
CONTINUOUS
  5
E86
 66
     1
 10
0.0
 20
0.0
 30
0.0
  0
VERTEX
  8
43
  6
CONTINUOUS
  5
E87
 10
14980.41
 20
49312.97
 30
0.0
  0
VERTEX
  8
43
  6
CONTINUOUS
  5
E88
 10
14982.69
 20
49308.82
 30
0.0
  0
VERTEX
  8
43
  6
CONTINUOUS
  5
E89
 10
14978.59
 20
49309.96
 30
0.0
  0
VERTEX
  8
43
  6
CONTINUOUS
  5
E8A
 10
14980.41
 20
49312.97
 30
0.0
  0
SEQEND
  8
0
  5
E8B
  0
POLYLINE
  8
43
  6
CONTINUOUS
  5
E8C
 66
     1
 10
0.0
 20
0.0
 30
0.0
  0
VERTEX
  8
43
  6
CONTINUOUS
  5
E8D
 10
15002.83
 20
49311.72
 30
0.0
  0
VERTEX
  8
43
  6
CONTINUOUS
  5
E8E
 10
15005.11
 20
49307.57
 30
0.0
  0
VERTEX
  8
43
  6
CONTINUOUS
  5
E8F
 10
15001.01
 20
49308.71
 30
0.0
  0
VERTEX
  8
43
  6
CONTINUOUS
  5
E90
 10
15002.83
 20
49311.72
 30
0.0
  0
SEQEND
  8
0
  5
E91
  0
POLYLINE
  8
43
  6
CONTINUOUS
  5
E92
 66
     1
 10
0.0
 20
0.0
 30
0.0
  0
VERTEX
  8
43
  6
CONTINUOUS
  5
E93
 10
15022.86
 20
49307.29
 30
0.0
  0
VERTEX
  8
43
  6
CONTINUOUS
  5
E94
 10
15025.82
 20
49303.6
 30
0.0
  0
VERTEX
  8
43
  6
CONTINUOUS
  5
E95
 10
15021.59
 20
49304.01
 30
0.0
  0
VERTEX
  8
43
  6
CONTINUOUS
  5
E96
 10
15022.86
 20
49307.29
 30
0.0
  0
SEQEND
  8
0
  5
E97
  0
POLYLINE
  8
43
  6
CONTINUOUS
  5
E98
 66
     1
 10
0.0
 20
0.0
 30
0.0
  0
VERTEX
  8
43
  6
CONTINUOUS
  5
E99
 10
15035.76
 20
49307.47
 30
0.0
  0
VERTEX
  8
43
  6
CONTINUOUS
  5
E9A
 10
15040.17
 20
49305.75
 30
0.0
  0
VERTEX
  8
43
  6
CONTINUOUS
  5
E9B
 10
15036.3
 20
49303.99
 30
0.0
  0
VERTEX
  8
43
  6
CONTINUOUS
  5
E9C
 10
15035.76
 20
49307.47
 30
0.0
  0
SEQEND
  8
0
  5
E9D
  0
POLYLINE
  8
43
  6
CONTINUOUS
  5
E9E
 66
     1
 10
0.0
 20
0.0
 30
0.0
  0
VERTEX
  8
43
  6
CONTINUOUS
  5
E9F
 10
15041.46
 20
49318.41
 30
0.0
  0
VERTEX
  8
43
  6
CONTINUOUS
  5
EA0
 10
15046.16
 20
49318.97
 30
0.0
  0
VERTEX
  8
43
  6
CONTINUOUS
  5
EA1
 10
15043.57
 20
49315.59
 30
0.0
  0
VERTEX
  8
43
  6
CONTINUOUS
  5
EA2
 10
15041.46
 20
49318.41
 30
0.0
  0
SEQEND
  8
0
  5
EA3
  0
POLYLINE
  8
43
  6
CONTINUOUS
  5
EA4
 66
     1
 10
0.0
 20
0.0
 30
0.0
  0
VERTEX
  8
43
  6
CONTINUOUS
  5
EA5
 10
15042.17
 20
49330.63
 30
0.0
  0
VERTEX
  8
43
  6
CONTINUOUS
  5
EA6
 10
15045.04
 20
49334.4
 30
0.0
  0
VERTEX
  8
43
  6
CONTINUOUS
  5
EA7
 10
15045.66
 20
49330.19
 30
0.0
  0
VERTEX
  8
43
  6
CONTINUOUS
  5
EA8
 10
15042.17
 20
49330.63
 30
0.0
  0
SEQEND
  8
0
  5
EA9
  0
POLYLINE
  8
43
  6
CONTINUOUS
  5
EAA
 66
     1
 10
0.0
 20
0.0
 30
0.0
  0
VERTEX
  8
43
  6
CONTINUOUS
  5
EAB
 10
15035.92
 20
49340.0
 30
0.0
  0
VERTEX
  8
43
  6
CONTINUOUS
  5
EAC
 10
15036.84
 20
49344.64
 30
0.0
  0
VERTEX
  8
43
  6
CONTINUOUS
  5
EAD
 10
15039.25
 20
49341.13
 30
0.0
  0
VERTEX
  8
43
  6
CONTINUOUS
  5
EAE
 10
15035.92
 20
49340.0
 30
0.0
  0
SEQEND
  8
0
  5
EAF
  0
POLYLINE
  8
43
  6
CONTINUOUS
  5
EB0
 66
     1
 10
0.0
 20
0.0
 30
0.0
  0
VERTEX
  8
43
  6
CONTINUOUS
  5
EB1
 10
15023.64
 20
49342.03
 30
0.0
  0
VERTEX
  8
43
  6
CONTINUOUS
  5
EB2
 10
15022.27
 20
49346.56
 30
0.0
  0
VERTEX
  8
43
  6
CONTINUOUS
  5
EB3
 10
15026.05
 20
49344.59
 30
0.0
  0
VERTEX
  8
43
  6
CONTINUOUS
  5
EB4
 10
15023.64
 20
49342.03
 30
0.0
  0
SEQEND
  8
0
  5
EB5
  0
POLYLINE
  8
43
  6
CONTINUOUS
  5
EB6
 66
     1
 10
0.0
 20
0.0
 30
0.0
  0
VERTEX
  8
43
  6
CONTINUOUS
  5
EB7
 10
15005.72
 20
49338.41
 30
0.0
  0
VERTEX
  8
43
  6
CONTINUOUS
  5
EB8
 10
15003.44
 20
49342.56
 30
0.0
  0
VERTEX
  8
43
  6
CONTINUOUS
  5
EB9
 10
15007.54
 20
49341.42
 30
0.0
  0
VERTEX
  8
43
  6
CONTINUOUS
  5
EBA
 10
15005.72
 20
49338.41
 30
0.0
  0
SEQEND
  8
0
  5
EBB
  0
POLYLINE
  8
43
  6
CONTINUOUS
  5
EBC
 66
     1
 10
0.0
 20
0.0
 30
0.0
  0
VERTEX
  8
43
  6
CONTINUOUS
  5
EBD
 10
14988.09
 20
49338.54
 30
0.0
  0
VERTEX
  8
43
  6
CONTINUOUS
  5
EBE
 10
14985.81
 20
49342.69
 30
0.0
  0
VERTEX
  8
43
  6
CONTINUOUS
  5
EBF
 10
14989.91
 20
49341.55
 30
0.0
  0
VERTEX
  8
43
  6
CONTINUOUS
  5
EC0
 10
14988.09
 20
49338.54
 30
0.0
  0
SEQEND
  8
0
  5
EC1
  0
POLYLINE
  8
43
  6
CONTINUOUS
  5
EC2
 66
     1
 10
0.0
 20
0.0
 30
0.0
  0
VERTEX
  8
43
  6
CONTINUOUS
  5
EC3
 10
14970.09
 20
49338.67
 30
0.0
  0
VERTEX
  8
43
  6
CONTINUOUS
  5
EC4
 10
14967.81
 20
49342.82
 30
0.0
  0
VERTEX
  8
43
  6
CONTINUOUS
  5
EC5
 10
14971.91
 20
49341.68
 30
0.0
  0
VERTEX
  8
43
  6
CONTINUOUS
  5
EC6
 10
14970.09
 20
49338.67
 30
0.0
  0
SEQEND
  8
0
  5
EC7
  0
POLYLINE
  8
43
  6
CONTINUOUS
  5
EC8
 66
     1
 10
0.0
 20
0.0
 30
0.0
  0
VERTEX
  8
43
  6
CONTINUOUS
  5
EC9
 10
14952.09
 20
49338.8
 30
0.0
  0
VERTEX
  8
43
  6
CONTINUOUS
  5
ECA
 10
14949.81
 20
49342.95
 30
0.0
  0
VERTEX
  8
43
  6
CONTINUOUS
  5
ECB
 10
14953.91
 20
49341.81
 30
0.0
  0
VERTEX
  8
43
  6
CONTINUOUS
  5
ECC
 10
14952.09
 20
49338.8
 30
0.0
  0
SEQEND
  8
0
  5
ECD
  0
POLYLINE
  8
43
  6
CONTINUOUS
  5
ECE
 66
     1
 10
0.0
 20
0.0
 30
0.0
  0
VERTEX
  8
43
  6
CONTINUOUS
  5
ECF
 10
14934.09
 20
49338.93
 30
0.0
  0
VERTEX
  8
43
  6
CONTINUOUS
  5
ED0
 10
14931.81
 20
49343.08
 30
0.0
  0
VERTEX
  8
43
  6
CONTINUOUS
  5
ED1
 10
14935.91
 20
49341.94
 30
0.0
  0
VERTEX
  8
43
  6
CONTINUOUS
  5
ED2
 10
14934.09
 20
49338.93
 30
0.0
  0
SEQEND
  8
0
  5
ED3
  0
POLYLINE
  8
43
  6
CONTINUOUS
  5
ED4
 66
     1
 10
0.0
 20
0.0
 30
0.0
  0
VERTEX
  8
43
  6
CONTINUOUS
  5
ED5
 10
14934.41
 20
49400.27
 30
0.0
  0
VERTEX
  8
43
  6
CONTINUOUS
  5
ED6
 10
14936.69
 20
49396.12
 30
0.0
  0
VERTEX
  8
43
  6
CONTINUOUS
  5
ED7
 10
14932.59
 20
49397.26
 30
0.0
  0
VERTEX
  8
43
  6
CONTINUOUS
  5
ED8
 10
14934.41
 20
49400.27
 30
0.0
  0
SEQEND
  8
0
  5
ED9
  0
POLYLINE
  8
43
  6
CONTINUOUS
  5
EDA
 66
     1
 10
0.0
 20
0.0
 30
0.0
  0
VERTEX
  8
43
  6
CONTINUOUS
  5
EDB
 10
14952.41
 20
49400.14
 30
0.0
  0
VERTEX
  8
43
  6
CONTINUOUS
  5
EDC
 10
14954.69
 20
49395.99
 30
0.0
  0
VERTEX
  8
43
  6
CONTINUOUS
  5
EDD
 10
14950.59
 20
49397.13
 30
0.0
  0
VERTEX
  8
43
  6
CONTINUOUS
  5
EDE
 10
14952.41
 20
49400.14
 30
0.0
  0
SEQEND
  8
0
  5
EDF
  0
POLYLINE
  8
43
  6
CONTINUOUS
  5
EE0
 66
     1
 10
0.0
 20
0.0
 30
0.0
  0
VERTEX
  8
43
  6
CONTINUOUS
  5
EE1
 10
14970.41
 20
49400.01
 30
0.0
  0
VERTEX
  8
43
  6
CONTINUOUS
  5
EE2
 10
14972.69
 20
49395.86
 30
0.0
  0
VERTEX
  8
43
  6
CONTINUOUS
  5
EE3
 10
14968.59
 20
49397.0
 30
0.0
  0
VERTEX
  8
43
  6
CONTINUOUS
  5
EE4
 10
14970.41
 20
49400.01
 30
0.0
  0
SEQEND
  8
0
  5
EE5
  0
POLYLINE
  8
43
  6
CONTINUOUS
  5
EE6
 66
     1
 10
0.0
 20
0.0
 30
0.0
  0
VERTEX
  8
43
  6
CONTINUOUS
  5
EE7
 10
14988.41
 20
49399.88
 30
0.0
  0
VERTEX
  8
43
  6
CONTINUOUS
  5
EE8
 10
14990.69
 20
49395.73
 30
0.0
  0
VERTEX
  8
43
  6
CONTINUOUS
  5
EE9
 10
14986.59
 20
49396.87
 30
0.0
  0
VERTEX
  8
43
  6
CONTINUOUS
  5
EEA
 10
14988.41
 20
49399.88
 30
0.0
  0
SEQEND
  8
0
  5
EEB
  0
POLYLINE
  8
43
  6
CONTINUOUS
  5
EEC
 66
     1
 10
0.0
 20
0.0
 30
0.0
  0
VERTEX
  8
43
  6
CONTINUOUS
  5
EED
 10
15006.09
 20
49399.75
 30
0.0
  0
VERTEX
  8
43
  6
CONTINUOUS
  5
EEE
 10
15008.37
 20
49395.6
 30
0.0
  0
VERTEX
  8
43
  6
CONTINUOUS
  5
EEF
 10
15004.27
 20
49396.74
 30
0.0
  0
VERTEX
  8
43
  6
CONTINUOUS
  5
EF0
 10
15006.09
 20
49399.75
 30
0.0
  0
SEQEND
  8
0
  5
EF1
  0
POLYLINE
  8
43
  6
CONTINUOUS
  5
EF2
 66
     1
 10
0.0
 20
0.0
 30
0.0
  0
VERTEX
  8
43
  6
CONTINUOUS
  5
EF3
 10
15024.15
 20
49396.72
 30
0.0
  0
VERTEX
  8
43
  6
CONTINUOUS
  5
EF4
 10
15027.24
 20
49393.13
 30
0.0
  0
VERTEX
  8
43
  6
CONTINUOUS
  5
EF5
 10
15022.99
 20
49393.4
 30
0.0
  0
VERTEX
  8
43
  6
CONTINUOUS
  5
EF6
 10
15024.15
 20
49396.72
 30
0.0
  0
SEQEND
  8
0
  5
EF7
  0
POLYLINE
  8
43
  6
CONTINUOUS
  5
EF8
 66
     1
 10
0.0
 20
0.0
 30
0.0
  0
VERTEX
  8
43
  6
CONTINUOUS
  5
EF9
 10
15037.02
 20
49397.09
 30
0.0
  0
VERTEX
  8
43
  6
CONTINUOUS
  5
EFA
 10
15041.37
 20
49395.22
 30
0.0
  0
VERTEX
  8
43
  6
CONTINUOUS
  5
EFB
 10
15037.44
 20
49393.6
 30
0.0
  0
VERTEX
  8
43
  6
CONTINUOUS
  5
EFC
 10
15037.02
 20
49397.09
 30
0.0
  0
SEQEND
  8
0
  5
EFD
  0
POLYLINE
  8
43
  6
CONTINUOUS
  5
EFE
 66
     1
 10
0.0
 20
0.0
 30
0.0
  0
VERTEX
  8
43
  6
CONTINUOUS
  5
EFF
 10
15043.88
 20
49407.97
 30
0.0
  0
VERTEX
  8
43
  6
CONTINUOUS
  5
F00
 10
15048.6
 20
49408.36
 30
0.0
  0
VERTEX
  8
43
  6
CONTINUOUS
  5
F01
 10
15045.89
 20
49405.08
 30
0.0
  0
VERTEX
  8
43
  6
CONTINUOUS
  5
F02
 10
15043.88
 20
49407.97
 30
0.0
  0
SEQEND
  8
0
  5
F03
  0
POLYLINE
  8
43
  6
CONTINUOUS
  5
F04
 66
     1
 10
0.0
 20
0.0
 30
0.0
  0
VERTEX
  8
43
  6
CONTINUOUS
  5
F05
 10
15043.93
 20
49420.12
 30
0.0
  0
VERTEX
  8
43
  6
CONTINUOUS
  5
F06
 10
15046.73
 20
49423.94
 30
0.0
  0
VERTEX
  8
43
  6
CONTINUOUS
  5
F07
 10
15047.43
 20
49419.74
 30
0.0
  0
VERTEX
  8
43
  6
CONTINUOUS
  5
F08
 10
15043.93
 20
49420.12
 30
0.0
  0
SEQEND
  8
0
  5
F09
  0
POLYLINE
  8
43
  6
CONTINUOUS
  5
F0A
 66
     1
 10
0.0
 20
0.0
 30
0.0
  0
VERTEX
  8
43
  6
CONTINUOUS
  5
F0B
 10
15036.64
 20
49430.47
 30
0.0
  0
VERTEX
  8
43
  6
CONTINUOUS
  5
F0C
 10
15037.56
 20
49435.11
 30
0.0
  0
VERTEX
  8
43
  6
CONTINUOUS
  5
F0D
 10
15039.97
 20
49431.6
 30
0.0
  0
VERTEX
  8
43
  6
CONTINUOUS
  5
F0E
 10
15036.64
 20
49430.47
 30
0.0
  0
SEQEND
  8
0
  5
F0F
  0
POLYLINE
  8
43
  6
CONTINUOUS
  5
F10
 66
     1
 10
0.0
 20
0.0
 30
0.0
  0
VERTEX
  8
43
  6
CONTINUOUS
  5
F11
 10
15023.84
 20
49433.53
 30
0.0
  0
VERTEX
  8
43
  6
CONTINUOUS
  5
F12
 10
15022.63
 20
49438.11
 30
0.0
  0
VERTEX
  8
43
  6
CONTINUOUS
  5
F13
 10
15026.34
 20
49436.01
 30
0.0
  0
VERTEX
  8
43
  6
CONTINUOUS
  5
F14
 10
15023.84
 20
49433.53
 30
0.0
  0
SEQEND
  8
0
  5
F15
  0
POLYLINE
  8
43
  6
CONTINUOUS
  5
F16
 66
     1
 10
0.0
 20
0.0
 30
0.0
  0
VERTEX
  8
43
  6
CONTINUOUS
  5
F17
 10
15006.42
 20
49428.25
 30
0.0
  0
VERTEX
  8
43
  6
CONTINUOUS
  5
F18
 10
15004.14
 20
49432.4
 30
0.0
  0
VERTEX
  8
43
  6
CONTINUOUS
  5
F19
 10
15008.24
 20
49431.26
 30
0.0
  0
VERTEX
  8
43
  6
CONTINUOUS
  5
F1A
 10
15006.42
 20
49428.25
 30
0.0
  0
SEQEND
  8
0
  5
F1B
  0
POLYLINE
  8
43
  6
CONTINUOUS
  5
F1C
 66
     1
 10
0.0
 20
0.0
 30
0.0
  0
VERTEX
  8
43
  6
CONTINUOUS
  5
F1D
 10
14988.74
 20
49428.38
 30
0.0
  0
VERTEX
  8
43
  6
CONTINUOUS
  5
F1E
 10
14986.46
 20
49432.53
 30
0.0
  0
VERTEX
  8
43
  6
CONTINUOUS
  5
F1F
 10
14990.56
 20
49431.39
 30
0.0
  0
VERTEX
  8
43
  6
CONTINUOUS
  5
F20
 10
14988.74
 20
49428.38
 30
0.0
  0
SEQEND
  8
0
  5
F21
  0
POLYLINE
  8
43
  6
CONTINUOUS
  5
F22
 66
     1
 10
0.0
 20
0.0
 30
0.0
  0
VERTEX
  8
43
  6
CONTINUOUS
  5
F23
 10
14970.74
 20
49428.5
 30
0.0
  0
VERTEX
  8
43
  6
CONTINUOUS
  5
F24
 10
14968.46
 20
49432.65
 30
0.0
  0
VERTEX
  8
43
  6
CONTINUOUS
  5
F25
 10
14972.56
 20
49431.51
 30
0.0
  0
VERTEX
  8
43
  6
CONTINUOUS
  5
F26
 10
14970.74
 20
49428.5
 30
0.0
  0
SEQEND
  8
0
  5
F27
  0
POLYLINE
  8
43
  6
CONTINUOUS
  5
F28
 66
     1
 10
0.0
 20
0.0
 30
0.0
  0
VERTEX
  8
43
  6
CONTINUOUS
  5
F29
 10
14952.74
 20
49428.63
 30
0.0
  0
VERTEX
  8
43
  6
CONTINUOUS
  5
F2A
 10
14950.46
 20
49432.78
 30
0.0
  0
VERTEX
  8
43
  6
CONTINUOUS
  5
F2B
 10
14954.56
 20
49431.64
 30
0.0
  0
VERTEX
  8
43
  6
CONTINUOUS
  5
F2C
 10
14952.74
 20
49428.63
 30
0.0
  0
SEQEND
  8
0
  5
F2D
  0
POLYLINE
  8
43
  6
CONTINUOUS
  5
F2E
 66
     1
 10
0.0
 20
0.0
 30
0.0
  0
VERTEX
  8
43
  6
CONTINUOUS
  5
F2F
 10
14934.74
 20
49428.76
 30
0.0
  0
VERTEX
  8
43
  6
CONTINUOUS
  5
F30
 10
14932.46
 20
49432.91
 30
0.0
  0
VERTEX
  8
43
  6
CONTINUOUS
  5
F31
 10
14936.56
 20
49431.77
 30
0.0
  0
VERTEX
  8
43
  6
CONTINUOUS
  5
F32
 10
14934.74
 20
49428.76
 30
0.0
  0
SEQEND
  8
0
  5
F33
  0
POLYLINE
  8
43
  6
CONTINUOUS
  5
F34
 66
     1
 10
0.0
 20
0.0
 30
0.0
  0
VERTEX
  8
43
  6
CONTINUOUS
  5
F35
 10
15028.52
 20
49499.01
 30
0.0
  0
VERTEX
  8
43
  6
CONTINUOUS
  5
F36
 10
15033.03
 20
49500.45
 30
0.0
  0
VERTEX
  8
43
  6
CONTINUOUS
  5
F37
 10
15031.13
 20
49496.65
 30
0.0
  0
VERTEX
  8
43
  6
CONTINUOUS
  5
F38
 10
15028.52
 20
49499.01
 30
0.0
  0
SEQEND
  8
0
  5
F39
  0
POLYLINE
  8
43
  6
CONTINUOUS
  5
F3A
 66
     1
 10
0.0
 20
0.0
 30
0.0
  0
VERTEX
  8
43
  6
CONTINUOUS
  5
F3B
 10
15034.34
 20
49483.94
 30
0.0
  0
VERTEX
  8
43
  6
CONTINUOUS
  5
F3C
 10
15039.05
 20
49483.43
 30
0.0
  0
VERTEX
  8
43
  6
CONTINUOUS
  5
F3D
 10
15035.76
 20
49480.72
 30
0.0
  0
VERTEX
  8
43
  6
CONTINUOUS
  5
F3E
 10
15034.34
 20
49483.94
 30
0.0
  0
SEQEND
  8
0
  5
F3F
  0
POLYLINE
  8
43
  6
CONTINUOUS
  5
F40
 66
     1
 10
0.0
 20
0.0
 30
0.0
  0
VERTEX
  8
43
  6
CONTINUOUS
  5
F41
 10
15017.66
 20
49485.18
 30
0.0
  0
VERTEX
  8
43
  6
CONTINUOUS
  5
F42
 10
15021.87
 20
49483.01
 30
0.0
  0
VERTEX
  8
43
  6
CONTINUOUS
  5
F43
 10
15017.83
 20
49481.67
 30
0.0
  0
VERTEX
  8
43
  6
CONTINUOUS
  5
F44
 10
15017.66
 20
49485.18
 30
0.0
  0
SEQEND
  8
0
  5
F45
  0
POLYLINE
  8
43
  6
CONTINUOUS
  5
F46
 66
     1
 10
0.0
 20
0.0
 30
0.0
  0
VERTEX
  8
43
  6
CONTINUOUS
  5
F47
 10
15005.2
 20
49485.0
 30
0.0
  0
VERTEX
  8
43
  6
CONTINUOUS
  5
F48
 10
15006.88
 20
49480.57
 30
0.0
  0
VERTEX
  8
43
  6
CONTINUOUS
  5
F49
 10
15002.98
 20
49482.27
 30
0.0
  0
VERTEX
  8
43
  6
CONTINUOUS
  5
F4A
 10
15005.2
 20
49485.0
 30
0.0
  0
SEQEND
  8
0
  5
F4B
  0
POLYLINE
  8
43
  6
CONTINUOUS
  5
F4C
 66
     1
 10
0.0
 20
0.0
 30
0.0
  0
VERTEX
  8
43
  6
CONTINUOUS
  5
F4D
 10
14994.51
 20
49488.69
 30
0.0
  0
VERTEX
  8
43
  6
CONTINUOUS
  5
F4E
 10
14993.43
 20
49484.08
 30
0.0
  0
VERTEX
  8
43
  6
CONTINUOUS
  5
F4F
 10
14991.14
 20
49487.67
 30
0.0
  0
VERTEX
  8
43
  6
CONTINUOUS
  5
F50
 10
14994.51
 20
49488.69
 30
0.0
  0
SEQEND
  8
0
  5
F51
  0
POLYLINE
  8
43
  6
CONTINUOUS
  5
F52
 66
     1
 10
0.0
 20
0.0
 30
0.0
  0
VERTEX
  8
43
  6
CONTINUOUS
  5
F53
 10
14991.88
 20
49501.8
 30
0.0
  0
VERTEX
  8
43
  6
CONTINUOUS
  5
F54
 10
14988.82
 20
49498.19
 30
0.0
  0
VERTEX
  8
43
  6
CONTINUOUS
  5
F55
 10
14988.42
 20
49502.42
 30
0.0
  0
VERTEX
  8
43
  6
CONTINUOUS
  5
F56
 10
14991.88
 20
49501.8
 30
0.0
  0
SEQEND
  8
0
  5
F57
  0
POLYLINE
  8
43
  6
CONTINUOUS
  5
F58
 66
     1
 10
0.0
 20
0.0
 30
0.0
  0
VERTEX
  8
43
  6
CONTINUOUS
  5
F59
 10
14934.19
 20
49500.68
 30
0.0
  0
VERTEX
  8
43
  6
CONTINUOUS
  5
F5A
 10
14938.34
 20
49502.96
 30
0.0
  0
VERTEX
  8
43
  6
CONTINUOUS
  5
F5B
 10
14937.2
 20
49498.86
 30
0.0
  0
VERTEX
  8
43
  6
CONTINUOUS
  5
F5C
 10
14934.19
 20
49500.68
 30
0.0
  0
SEQEND
  8
0
  5
F5D
  0
POLYLINE
  8
43
  6
CONTINUOUS
  5
F5E
 66
     1
 10
0.0
 20
0.0
 30
0.0
  0
VERTEX
  8
43
  6
CONTINUOUS
  5
F5F
 10
14934.07
 20
49484.15
 30
0.0
  0
VERTEX
  8
43
  6
CONTINUOUS
  5
F60
 10
14938.22
 20
49486.43
 30
0.0
  0
VERTEX
  8
43
  6
CONTINUOUS
  5
F61
 10
14937.08
 20
49482.33
 30
0.0
  0
VERTEX
  8
43
  6
CONTINUOUS
  5
F62
 10
14934.07
 20
49484.15
 30
0.0
  0
SEQEND
  8
0
  5
F63
  0
POLYLINE
  8
43
  6
CONTINUOUS
  5
F64
 66
     1
 10
0.0
 20
0.0
 30
0.0
  0
VERTEX
  8
43
  6
CONTINUOUS
  5
F65
 10
14933.95
 20
49467.62
 30
0.0
  0
VERTEX
  8
43
  6
CONTINUOUS
  5
F66
 10
14938.1
 20
49469.9
 30
0.0
  0
VERTEX
  8
43
  6
CONTINUOUS
  5
F67
 10
14936.96
 20
49465.8
 30
0.0
  0
VERTEX
  8
43
  6
CONTINUOUS
  5
F68
 10
14933.95
 20
49467.62
 30
0.0
  0
SEQEND
  8
0
  5
F69
  0
POLYLINE
  8
43
  6
CONTINUOUS
  5
F6A
 66
     1
 10
0.0
 20
0.0
 30
0.0
  0
VERTEX
  8
43
  6
CONTINUOUS
  5
F6B
 10
14992.85
 20
49536.62
 30
0.0
  0
VERTEX
  8
43
  6
CONTINUOUS
  5
F6C
 10
14995.2
 20
49532.51
 30
0.0
  0
VERTEX
  8
43
  6
CONTINUOUS
  5
F6D
 10
14991.08
 20
49533.58
 30
0.0
  0
VERTEX
  8
43
  6
CONTINUOUS
  5
F6E
 10
14992.85
 20
49536.62
 30
0.0
  0
SEQEND
  8
0
  5
F6F
  0
POLYLINE
  8
43
  6
CONTINUOUS
  5
F70
 66
     1
 10
0.0
 20
0.0
 30
0.0
  0
VERTEX
  8
43
  6
CONTINUOUS
  5
F71
 10
14975.45
 20
49537.04
 30
0.0
  0
VERTEX
  8
43
  6
CONTINUOUS
  5
F72
 10
14977.8
 20
49532.93
 30
0.0
  0
VERTEX
  8
43
  6
CONTINUOUS
  5
F73
 10
14973.68
 20
49534.0
 30
0.0
  0
VERTEX
  8
43
  6
CONTINUOUS
  5
F74
 10
14975.45
 20
49537.04
 30
0.0
  0
SEQEND
  8
0
  5
F75
  0
POLYLINE
  8
43
  6
CONTINUOUS
  5
F76
 66
     1
 10
0.0
 20
0.0
 30
0.0
  0
VERTEX
  8
43
  6
CONTINUOUS
  5
F77
 10
14956.12
 20
49536.84
 30
0.0
  0
VERTEX
  8
43
  6
CONTINUOUS
  5
F78
 10
14958.47
 20
49532.73
 30
0.0
  0
VERTEX
  8
43
  6
CONTINUOUS
  5
F79
 10
14954.35
 20
49533.8
 30
0.0
  0
VERTEX
  8
43
  6
CONTINUOUS
  5
F7A
 10
14956.12
 20
49536.84
 30
0.0
  0
SEQEND
  8
0
  5
F7B
  0
POLYLINE
  8
43
  6
CONTINUOUS
  5
F7C
 66
     1
 10
0.0
 20
0.0
 30
0.0
  0
VERTEX
  8
43
  6
CONTINUOUS
  5
F7D
 10
15156.8
 20
49572.94
 30
0.0
  0
VERTEX
  8
43
  6
CONTINUOUS
  5
F7E
 10
15154.45
 20
49577.05
 30
0.0
  0
VERTEX
  8
43
  6
CONTINUOUS
  5
F7F
 10
15158.57
 20
49575.98
 30
0.0
  0
VERTEX
  8
43
  6
CONTINUOUS
  5
F80
 10
15156.8
 20
49572.94
 30
0.0
  0
SEQEND
  8
0
  5
F81
  0
POLYLINE
  8
43
  6
CONTINUOUS
  5
F82
 66
     1
 10
0.0
 20
0.0
 30
0.0
  0
VERTEX
  8
43
  6
CONTINUOUS
  5
F83
 10
14828.8
 20
49677.29
 30
0.0
  0
VERTEX
  8
43
  6
CONTINUOUS
  5
F84
 10
14832.95
 20
49679.57
 30
0.0
  0
VERTEX
  8
43
  6
CONTINUOUS
  5
F85
 10
14831.81
 20
49675.47
 30
0.0
  0
VERTEX
  8
43
  6
CONTINUOUS
  5
F86
 10
14828.8
 20
49677.29
 30
0.0
  0
SEQEND
  8
0
  5
F87
  0
POLYLINE
  8
43
  6
CONTINUOUS
  5
F88
 66
     1
 10
0.0
 20
0.0
 30
0.0
  0
VERTEX
  8
43
  6
CONTINUOUS
  5
F89
 10
14828.43
 20
49601.68
 30
0.0
  0
VERTEX
  8
43
  6
CONTINUOUS
  5
F8A
 10
14832.58
 20
49603.96
 30
0.0
  0
VERTEX
  8
43
  6
CONTINUOUS
  5
F8B
 10
14831.44
 20
49599.86
 30
0.0
  0
VERTEX
  8
43
  6
CONTINUOUS
  5
F8C
 10
14828.43
 20
49601.68
 30
0.0
  0
SEQEND
  8
0
  5
F8D
  0
ENDSEC
  0
EOF
